  0
SECTION
  2
HEADER
  9
$ACADVER
  1
AC1009
  9
$ANGBASE
  50
0.0
  9
$ANGDIR
  70
0
  9
$ATTDIA
  70
1
  9
$ATTMODE
  70
1
  9
$ATTREQ
  70
1
  9
$AUNITS
  70
0
  9
$AUPREC
  70
2
  9
$AXISMODE
  70
0
  9
$CECOLOR
  62
256
  9
$CELTYPE
  6
BYLAYER
  9
$CLAYER
  8
0
  9
$DIMALT
  70
0
  9
$DIMALTD
  70
2
  9
$DIMALTF
  40
0.394
  9
$DIMAPOST
  1

  9
$DIMASO
  70
1
  9
$DIMASZ
  40
3.0
  9
$DIMBLK
  1

  9
$DIMBLK1
  1

  9
$DIMBLK2
  1

  9
$DIMCEN
  40
0.09
  9
$DIMCLRD
  70
256
  9
$DIMCLRE
  70
256
  9
$DIMCLRT
  70
256
  9
$DIMDLE
  40
0.0
  9
$DIMDLI
  40
7.5
  9
$DIMEXE
  40
2.0
  9
$DIMEXO
  40
1.0
  9
$DIMGAP
  40
2.0
  9
$DIMLFAC
  40
1.0
  9
$DIMLIM
  70
0
  9
$DIMPOST
  1

  9
$DIMRND
  40
0.2
  9
$DIMSAH
  70
0
  9
$DIMSCALE
  40
1.0
  9
$DIMSE1
  70
0
  9
$DIMSE2
  70
0
  9
$DIMSHO
  70
1
  9
$DIMSOXD
  70
0
  9
$DIMSTYLE
  2
*UNNAMED
  9
$DIMTAD
  70
1
  9
$DIMTFAC
  40
1.0
  9
$DIMTIH
  70
1
  9
$DIMTIX
  70
0
  9
$DIMTM
  40
0.0
  9
$DIMTOFL
  70
1
  9
$DIMTOH
  70
1
  9
$DIMTOL
  70
0
  9
$DIMTP
  40
0.0
  9
$DIMTSZ
  40
0.0
  9
$DIMTVP
  40
0.0
  9
$DIMTXT
  40
5.0
  9
$DIMZIN
  70
1
  9
$DRAGMODE
  70
0
  9
$ELEVATION
  40
0.0
  9
$EXTMAX
  10
0.0
  20
0.0
  30
0.0
  9
$EXTMIN
  10
0.0
  20
0.0
  30
0.0
  9
$FILLETRAD
  40
1.0
  9
$FILLMODE
  70
1
  9
$INSBASE
  10
0.0
  20
0.0
  30
0.0
  9
$LIMMAX
  10
210.0
  20
297.0
  9
$LIMMIN
  10
0.0
  20
0.0
  9
$LTSCALE
  40
1.0
  9
$LUNITS
  70
2
  9
$LUPREC
  70
2
  9
$MENU
  1
acad
  9
$MIRRTEXT
  70
0
  9
$ORTHOMODE
  70
0
  9
$OSMODE
  70
0
  9
$PDMODE
  70
0
  9
$PDSIZE
  40
0.0
  9
$PEXTMAX
  10
0.0
  20
0.0
  30
0.0
  9
$PEXTMIN
  10
0.0
  20
0.0
  30
0.0
  9
$PLIMCHECK
  70
0
  9
$PLIMMAX
  10
0.0
  20
0.0
  9
$PLIMMIN
  10
0.0
  20
0.0
  9
$PLINEWID
  40
0.0
  9
$PUCSXDIR
  10
1.0
  20
0.0
  30
0.0
  9
$PUCSYDIR
  10
0.0
  20
1.0
  30
0.0
  9
$QTEXTMODE
  70
0
  9
$SHADEDGE
  70
3
  9
$SHADEDIF
  70
70
  9
$SKETCHINC
  40
1.0
  9
$SPLFRAME
  70
0
  9
$SPLINESEGS
  70
20
  9
$SPLINETYPE
  70
1
  9
$SURFTAB1
  70
6
  9
$SURFTAB2
  70
6
  9
$TDINDWG
  40
0.0
  9
$TDUPDATE
  40
2449702.667959
  9
$TDUSRTIMER
  40
0.0
  9
$TEXTSIZE
  40
5.0
  9
$TEXTSTYLE
  7
STANDARD
  9
$TILEMODE
  70
1
  9
$TRACEWID
  40
1.0
  9
$UCSORG
  10
0.0
  20
0.0
  30
0.0
  9
$UCSXDIR
  10
1.0
  20
0.0
  30
0.0
  9
$UCSYDIR
  10
0.0
  20
1.0
  30
0.0
  9
$UNITMODE
  70
0
  9
$WORLDVIEW
  70
1
  9
$GRIDMODE
  70
1
  9
$PINSBASE
  10
0.0
  20
0.0
  30
0.0
  9
$PSLTSCALE
  70
1
  9
$TREEDEPTH
  70
3020
  0
ENDSEC
  0
SECTION
  2
TABLES
  0
TABLE
  2
VPORT
  70
1
  0
VPORT
  2
*ACTIVE
  70
0
  10
0.0
  20
0.0
  11
1.0
  21
1.0
  12
120.213852
  22
98.51865
  13
0.0
  23
0.0
  14
0.5
  24
0.5
  15
0.5
  25
0.5
  16
0.0
  26
0.0
  36
1.0
  17
0.0
  27
0.0
  37
0.0
  40
205.133111
  41
1.283333
  42
50.0
  43
0.0
  44
0.0
  50
0.0
  51
0.0
  71
0
  72
100
  73
1
  74
1
  75
0
  76
1
  77
0
  78
0
  0
ENDTAB
  0
TABLE
  2
LTYPE
  70
13
  0
LTYPE
  2
CONTINUOUS
  70
0
  3
CONTINUOUS
  72
65
  73
0
  40
0.0
  0
LTYPE
  2
BORDER
  70
0
  3
BORDER
  72
65
  73
6
  40
1.75
  49
0.5
  49
-0.25
  49
0.5
  49
-0.25
  49
0.0
  49
-0.25
  0
LTYPE
  2
CENTER
  70
0
  3
CENTER
  72
65
  73
4
  40
2.0
  49
1.25
  49
-0.25
  49
0.25
  49
-0.25
  0
LTYPE
  2
DASHDOT
  70
0
  3
DASHDOT
  72
65
  73
4
  40
1.0
  49
0.5
  49
-0.25
  49
0.0
  49
-0.25
  0
LTYPE
  2
DASHED
  70
0
  3
DASHED
  72
65
  73
2
  40
0.75
  49
0.5
  49
-0.25
  0
LTYPE
  2
DIVIDE
  70
0
  3
DIVIDE
  72
65
  73
6
  40
1.25
  49
0.5
  49
-0.25
  49
0.0
  49
-0.25
  49
0.0
  49
-0.25
  0
LTYPE
  2
DOT
  70
0
  3
DOT
  72
65
  73
2
  40
0.25
  49
0.0
  49
-0.25
  0
LTYPE
  2
HIDDEN
  70
0
  3
HIDDEN
  72
65
  73
2
  40
0.375
  49
0.25
  49
-0.125
  0
LTYPE
  2
PHANTOM
  70
0
  3
PHANTOM
  72
65
  73
6
  40
2.5
  49
1.25
  49
-0.25
  49
0.25
  49
-0.25
  49
0.25
  49
-0.25
  0
LTYPE
  2
$INVISIBLE
  70
0
  3
$INVISIBLE
  72
65
  73
2
  40
200.0
  49
-100.0
  49
-100.0
  0
LTYPE
  2
$MARGINS
  70
0
  3
$MARGINS
  72
65
  73
2
  40
0.075
  49
0.05
  49
-0.025
  0
LTYPE
  2
$AUXILIARY
  70
0
  3
$AUXILIARY
  72
65
  73
2
  40
0.1
  49
0.05
  49
-0.05
  0
LTYPE
  2
ENG_PUNKTIERT
  70
0
  3
ENG_PUNKTIERT
  72
65
  73
2
  40
2.0
  49
1.0
  49
-1.0
  0
ENDTAB
  0
TABLE
  2
LAYER
  70
2
  0
LAYER
  2
0
  70
64
  6
CONTINUOUS
  62
7
  0
LAYER
  2
2
  70
64
  6
CONTINUOUS
  62
7
  0
ENDTAB
  0
TABLE
  2
STYLE
  70
1
  0
STYLE
  2
STANDARD
  70
0
  3
txt
  4

  40
0.0
  41
1.0
  42
0.2
  50
0.0
  71
0
  0
ENDTAB
  0
ENDSEC
  0
SECTION
  2
BLOCKS
  0
BLOCK
  8
0
  67
0
  70
65
  2
*C0
  10
0.0
  20
0.0
  30
0.0
  3
*C
  0
POLYLINE
  8
0
  6
CONTINUOUS
  62
7
  67
0
  66
1
  0
VERTEX
  8
0
  67
0
  10
67.499999
  20
76.499999
  30
0.0
  0
VERTEX
  8
0
  67
0
  10
64.451749
  20
76.383436
  30
0.0
  0
VERTEX
  8
0
  67
0
  10
61.323999
  20
76.047499
  30
0.0
  0
VERTEX
  8
0
  67
0
  10
58.142249
  20
75.512811
  30
0.0
  0
VERTEX
  8
0
  67
0
  10
54.931999
  20
74.799999
  30
0.0
  0
VERTEX
  8
0
  67
0
  10
51.718749
  20
73.929686
  30
0.0
  0
VERTEX
  8
0
  67
0
  10
48.527999
  20
72.922499
  30
0.0
  0
VERTEX
  8
0
  67
0
  10
45.385249
  20
71.799061
  30
0.0
  0
VERTEX
  8
0
  67
0
  10
42.315999
  20
70.579999
  30
0.0
  0
VERTEX
  8
0
  67
0
  10
39.345749
  20
69.285936
  30
0.0
  0
VERTEX
  8
0
  67
0
  10
36.499999
  20
67.937499
  30
0.0
  0
VERTEX
  8
0
  67
0
  10
33.804249
  20
66.555311
  30
0.0
  0
VERTEX
  8
0
  67
0
  10
31.283999
  20
65.159999
  30
0.0
  0
VERTEX
  8
0
  67
0
  10
28.964749
  20
63.772186
  30
0.0
  0
VERTEX
  8
0
  67
0
  10
26.871999
  20
62.412499
  30
0.0
  0
VERTEX
  8
0
  67
0
  10
25.031249
  20
61.101561
  30
0.0
  0
VERTEX
  8
0
  67
0
  10
23.467999
  20
59.859999
  30
0.0
  0
VERTEX
  8
0
  67
0
  10
22.207749
  20
58.708436
  30
0.0
  0
VERTEX
  8
0
  67
0
  10
21.275999
  20
57.667499
  30
0.0
  0
VERTEX
  8
0
  67
0
  10
20.698249
  20
56.757811
  30
0.0
  0
VERTEX
  8
0
  67
0
  10
20.499999
  20
55.999999
  30
0.0
  0
SEQEND
  0
ENDBLK
  0
BLOCK
  8
0
  67
0
  70
65
  2
*C1
  10
0.0
  20
0.0
  30
0.0
  3
*C
  0
POLYLINE
  8
0
  6
CONTINUOUS
  62
7
  67
0
  66
1
  0
VERTEX
  8
0
  67
0
  10
67.499999
  20
35.499999
  30
0.0
  0
VERTEX
  8
0
  67
0
  10
64.451749
  20
35.616561
  30
0.0
  0
VERTEX
  8
0
  67
0
  10
61.323999
  20
35.952499
  30
0.0
  0
VERTEX
  8
0
  67
0
  10
58.142249
  20
36.487186
  30
0.0
  0
VERTEX
  8
0
  67
0
  10
54.931999
  20
37.199999
  30
0.0
  0
VERTEX
  8
0
  67
0
  10
51.718749
  20
38.070311
  30
0.0
  0
VERTEX
  8
0
  67
0
  10
48.527999
  20
39.077499
  30
0.0
  0
VERTEX
  8
0
  67
0
  10
45.385249
  20
40.200936
  30
0.0
  0
VERTEX
  8
0
  67
0
  10
42.315999
  20
41.419999
  30
0.0
  0
VERTEX
  8
0
  67
0
  10
39.345749
  20
42.714061
  30
0.0
  0
VERTEX
  8
0
  67
0
  10
36.499999
  20
44.062499
  30
0.0
  0
VERTEX
  8
0
  67
0
  10
33.804249
  20
45.444686
  30
0.0
  0
VERTEX
  8
0
  67
0
  10
31.283999
  20
46.839999
  30
0.0
  0
VERTEX
  8
0
  67
0
  10
28.964749
  20
48.227811
  30
0.0
  0
VERTEX
  8
0
  67
0
  10
26.871999
  20
49.587499
  30
0.0
  0
VERTEX
  8
0
  67
0
  10
25.031249
  20
50.898436
  30
0.0
  0
VERTEX
  8
0
  67
0
  10
23.467999
  20
52.139999
  30
0.0
  0
VERTEX
  8
0
  67
0
  10
22.207749
  20
53.291561
  30
0.0
  0
VERTEX
  8
0
  67
0
  10
21.275999
  20
54.332499
  30
0.0
  0
VERTEX
  8
0
  67
0
  10
20.698249
  20
55.242186
  30
0.0
  0
VERTEX
  8
0
  67
0
  10
20.499999
  20
55.999999
  30
0.0
  0
SEQEND
  0
ENDBLK
  0
BLOCK
  8
0
  67
0
  70
65
  2
*G2
  10
0.0
  20
0.0
  30
0.0
  3
*G
  0
LINE
  8
0
  6
CONTINUOUS
  62
7
  67
0
  10
142.828848
  20
122.313674
  11
144.826901
  21
94.385055
  0
LINE
  8
0
  6
CONTINUOUS
  62
7
  67
0
  10
93.849877
  20
92.241918
  11
92.065901
  21
117.178186
  0
LINE
  8
0
  6
CONTINUOUS
  62
7
  67
0
  10
142.828848
  20
122.313674
  11
92.065901
  21
117.178186
  0
LINE
  8
0
  6
CONTINUOUS
  62
7
  67
0
  10
93.849877
  20
92.241918
  11
144.826901
  21
94.385055
  0
ARC
  8
0
  6
CONTINUOUS
  62
7
  67
0
  210
0.766416
  220
0.054831
  230
0.64
  10
97.809726
  20
-64.12347
  30
76.985727
  40
12.5
  50
0.0
  51
180.0
  1001
ACAD
  1000
TCW40_ELL_ARC
  1002
{
  1040
92.957886
  1040
104.710052
  1040
0.0
  1040
0.891988
  1040
-12.468134
  1040
0.0
  1040
0.0
  1040
0.0
  1040
1.0
  1040
0.64
  1040
3.141593
  1040
6.283185
  1002
}
  0
ARC
  8
0
  6
CONTINUOUS
  62
7
  67
0
  10
84.871245
  20
105.635355
  40
1.0
  50
94.092051
  51
184.092051
  0
LINE
  8
0
  6
CONTINUOUS
  62
7
  67
0
  10
83.873794
  20
105.563996
  11
84.087871
  21
102.571644
  0
ARC
  8
0
  6
CONTINUOUS
  62
7
  67
0
  10
85.085322
  20
102.643003
  40
1.0
  50
-175.907949
  51
-85.907949
  0
LINE
  8
0
  6
CONTINUOUS
  62
7
  67
0
  10
85.317902
  20
101.657087
  11
85.156681
  21
101.645553
  0
LINE
  8
0
  6
CONTINUOUS
  62
7
  67
0
  10
84.961107
  20
106.64434
  11
84.799886
  21
106.632806
  0
POLYLINE
  8
0
  6
CONTINUOUS
  62
7
  67
0
  66
1
  70
1
  0
VERTEX
  8
0
  67
0
  10
142.864527
  20
121.814949
  30
0.0
  0
VERTEX
  8
0
  67
0
  10
145.856879
  20
122.029026
  30
0.0
  0
VERTEX
  8
0
  67
0
  10
147.783574
  20
95.097857
  30
0.0
  0
VERTEX
  8
0
  67
0
  10
144.791222
  20
94.88378
  30
0.0
  0
VERTEX
  8
0
  67
0
  10
142.864527
  20
121.814949
  30
0.0
  0
SEQEND
  0
POLYLINE
  8
0
  6
CONTINUOUS
  62
7
  67
0
  66
1
  70
1
  0
VERTEX
  8
0
  67
0
  10
145.892559
  20
121.5303
  30
0.0
  0
VERTEX
  8
0
  67
0
  10
161.85177
  20
122.672045
  30
0.0
  0
VERTEX
  8
0
  67
0
  10
163.707105
  20
96.738327
  30
0.0
  0
VERTEX
  8
0
  67
0
  10
147.747894
  20
95.596582
  30
0.0
  0
VERTEX
  8
0
  67
0
  10
145.892559
  20
121.5303
  30
0.0
  0
SEQEND
  0
LINE
  8
0
  6
CONTINUOUS
  62
7
  67
0
  10
179.024085
  20
106.857129
  11
163.707105
  21
96.738327
  0
LINE
  8
0
  6
CONTINUOUS
  62
7
  67
0
  10
178.453212
  20
114.836734
  11
179.024085
  21
106.857129
  0
POLYLINE
  8
0
  6
CONTINUOUS
  62
7
  67
0
  66
1
  0
VERTEX
  8
0
  67
0
  10
166.879248
  20
120.299248
  30
0.0
  0
VERTEX
  8
0
  67
0
  10
173.602775
  20
130.025304
  30
0.0
  0
VERTEX
  8
0
  67
0
  10
181.006028
  20
124.907508
  30
0.0
  0
VERTEX
  8
0
  67
0
  10
175.128831
  20
116.405728
  30
0.0
  0
SEQEND
  0
INSERT
  8
0
  6
CONTINUOUS
  62
7
  67
0
  2
*C5
  10
0.0
  20
0.0
  1001
ACAD
  1000
TCW30CURVE
  1002
{
  1070
20
  1070
0
  1070
1
  1000

  1070
0
  1071
0
  1040
1.0
  1040
0.0
  1000
CONTINUOUS
  1000
0
  1071
7
  1071
162
  1010
166.879248
  1020
120.299248
  1071
6274
  1010
168.168077
  1020
119.095837
  1071
6274
  1010
169.662347
  1020
118.082185
  1071
130
  1010
171.25698
  1020
117.329573
  1071
6274
  1010
172.456899
  1020
116.763252
  1071
6274
  1010
173.802485
  1020
116.442188
  1071
162
  1010
175.128831
  1020
116.405728
  1002
}
  0
LINE
  8
0
  6
CONTINUOUS
  62
7
  67
0
  10
178.453212
  20
114.836734
  11
175.128831
  21
116.405728
  0
LINE
  8
0
  6
CONTINUOUS
  62
7
  67
0
  10
166.879248
  20
120.299248
  11
161.85177
  21
122.672045
  0
POLYLINE
  8
0
  6
CONTINUOUS
  62
7
  67
0
  66
1
  70
1
  0
VERTEX
  8
0
  67
0
  10
178.560251
  20
113.340558
  30
0.0
  0
VERTEX
  8
0
  67
0
  10
180.555152
  20
113.483276
  30
0.0
  0
VERTEX
  8
0
  67
0
  10
180.911948
  20
108.496023
  30
0.0
  0
VERTEX
  8
0
  67
0
  10
178.917046
  20
108.353305
  30
0.0
  0
VERTEX
  8
0
  67
0
  10
178.560251
  20
113.340558
  30
0.0
  0
SEQEND
  0
POLYLINE
  8
0
  6
CONTINUOUS
  62
7
  67
0
  66
1
  70
1
  0
VERTEX
  8
0
  67
0
  10
180.626511
  20
112.485826
  30
0.0
  0
VERTEX
  8
0
  67
0
  10
181.623962
  20
112.557185
  30
0.0
  0
VERTEX
  8
0
  67
0
  10
181.838039
  20
109.564833
  30
0.0
  0
VERTEX
  8
0
  67
0
  10
180.840589
  20
109.493474
  30
0.0
  0
VERTEX
  8
0
  67
0
  10
180.626511
  20
112.485826
  30
0.0
  0
SEQEND
  0
ENDBLK
  0
BLOCK
  8
0
  67
0
  70
65
  2
*G3
  10
0.0
  20
0.0
  30
0.0
  3
*G
  0
POLYLINE
  8
0
  6
CONTINUOUS
  62
7
  67
0
  66
1
  70
1
  0
VERTEX
  8
0
  67
0
  10
95.594043
  20
111.583988
  30
0.0
  0
VERTEX
  8
0
  67
0
  10
135.495914
  20
114.38412
  30
0.0
  0
VERTEX
  8
0
  67
0
  10
135.565917
  20
113.386573
  30
0.0
  0
VERTEX
  8
0
  67
0
  10
95.664047
  20
110.586442
  30
0.0
  0
VERTEX
  8
0
  67
0
  10
95.594043
  20
111.583988
  30
0.0
  0
SEQEND
  0
POLYLINE
  8
0
  6
CONTINUOUS
  62
7
  67
0
  66
1
  70
1
  0
VERTEX
  8
0
  67
0
  10
95.804053
  20
108.591348
  30
0.0
  0
VERTEX
  8
0
  67
0
  10
135.705924
  20
111.391479
  30
0.0
  0
VERTEX
  8
0
  67
0
  10
135.775927
  20
110.393933
  30
0.0
  0
VERTEX
  8
0
  67
0
  10
95.874057
  20
107.593801
  30
0.0
  0
VERTEX
  8
0
  67
0
  10
95.804053
  20
108.591348
  30
0.0
  0
SEQEND
  0
POLYLINE
  8
0
  6
CONTINUOUS
  62
7
  67
0
  66
1
  70
1
  0
VERTEX
  8
0
  67
0
  10
96.014063
  20
105.598708
  30
0.0
  0
VERTEX
  8
0
  67
0
  10
135.915934
  20
108.398839
  30
0.0
  0
VERTEX
  8
0
  67
0
  10
135.985937
  20
107.401292
  30
0.0
  0
VERTEX
  8
0
  67
0
  10
96.084066
  20
104.601161
  30
0.0
  0
VERTEX
  8
0
  67
0
  10
96.014063
  20
105.598708
  30
0.0
  0
SEQEND
  0
POLYLINE
  8
0
  6
CONTINUOUS
  62
7
  67
0
  66
1
  70
1
  0
VERTEX
  8
0
  67
0
  10
96.224073
  20
102.606067
  30
0.0
  0
VERTEX
  8
0
  67
0
  10
136.125943
  20
105.406199
  30
0.0
  0
VERTEX
  8
0
  67
0
  10
136.195947
  20
104.408652
  30
0.0
  0
VERTEX
  8
0
  67
0
  10
96.294076
  20
101.608521
  30
0.0
  0
VERTEX
  8
0
  67
0
  10
96.224073
  20
102.606067
  30
0.0
  0
SEQEND
  0
POLYLINE
  8
0
  6
CONTINUOUS
  62
7
  67
0
  66
1
  70
1
  0
VERTEX
  8
0
  67
0
  10
96.434083
  20
99.613427
  30
0.0
  0
VERTEX
  8
0
  67
0
  10
136.335953
  20
102.413558
  30
0.0
  0
VERTEX
  8
0
  67
0
  10
136.405957
  20
101.416012
  30
0.0
  0
VERTEX
  8
0
  67
0
  10
96.504086
  20
98.61588
  30
0.0
  0
VERTEX
  8
0
  67
0
  10
96.434083
  20
99.613427
  30
0.0
  0
SEQEND
  0
ENDBLK
  0
BLOCK
  8
0
  67
0
  70
65
  2
*G4
  10
0.0
  20
0.0
  30
0.0
  3
*G
  0
POLYLINE
  8
0
  6
CONTINUOUS
  62
7
  67
0
  66
1
  70
1
  0
VERTEX
  8
0
  67
0
  10
102.5
  20
89.0
  30
0.0
  0
VERTEX
  8
0
  67
0
  10
124.5
  20
89.0
  30
0.0
  0
VERTEX
  8
0
  67
0
  10
124.5
  20
88.0
  30
0.0
  0
VERTEX
  8
0
  67
0
  10
102.5
  20
88.0
  30
0.0
  0
VERTEX
  8
0
  67
0
  10
102.5
  20
89.0
  30
0.0
  0
SEQEND
  0
POLYLINE
  8
0
  6
CONTINUOUS
  62
7
  67
0
  66
1
  70
1
  0
VERTEX
  8
0
  67
0
  10
102.5
  20
86.0
  30
0.0
  0
VERTEX
  8
0
  67
0
  10
124.5
  20
86.0
  30
0.0
  0
VERTEX
  8
0
  67
0
  10
124.5
  20
85.0
  30
0.0
  0
VERTEX
  8
0
  67
0
  10
102.5
  20
85.0
  30
0.0
  0
VERTEX
  8
0
  67
0
  10
102.5
  20
86.0
  30
0.0
  0
SEQEND
  0
POLYLINE
  8
0
  6
CONTINUOUS
  62
7
  67
0
  66
1
  70
1
  0
VERTEX
  8
0
  67
0
  10
102.5
  20
83.0
  30
0.0
  0
VERTEX
  8
0
  67
0
  10
124.5
  20
83.0
  30
0.0
  0
VERTEX
  8
0
  67
0
  10
124.5
  20
82.0
  30
0.0
  0
VERTEX
  8
0
  67
0
  10
102.5
  20
82.0
  30
0.0
  0
VERTEX
  8
0
  67
0
  10
102.5
  20
83.0
  30
0.0
  0
SEQEND
  0
POLYLINE
  8
0
  6
CONTINUOUS
  62
7
  67
0
  66
1
  70
1
  0
VERTEX
  8
0
  67
0
  10
102.5
  20
80.0
  30
0.0
  0
VERTEX
  8
0
  67
0
  10
124.5
  20
80.0
  30
0.0
  0
VERTEX
  8
0
  67
0
  10
124.5
  20
79.0
  30
0.0
  0
VERTEX
  8
0
  67
0
  10
102.5
  20
79.0
  30
0.0
  0
VERTEX
  8
0
  67
0
  10
102.5
  20
80.0
  30
0.0
  0
SEQEND
  0
ENDBLK
  0
BLOCK
  8
0
  67
0
  70
65
  2
*C5
  10
0.0
  20
0.0
  30
0.0
  3
*C
  0
POLYLINE
  8
0
  6
CONTINUOUS
  62
7
  67
0
  66
1
  0
VERTEX
  8
0
  67
0
  10
166.879248
  20
120.299248
  30
0.0
  0
VERTEX
  8
0
  67
0
  10
167.0741
  20
120.120169
  30
0.0
  0
VERTEX
  8
0
  67
0
  10
167.271955
  20
119.943989
  30
0.0
  0
VERTEX
  8
0
  67
0
  10
167.472734
  20
119.770762
  30
0.0
  0
VERTEX
  8
0
  67
0
  10
167.676358
  20
119.600543
  30
0.0
  0
VERTEX
  8
0
  67
0
  10
167.882748
  20
119.433383
  30
0.0
  0
VERTEX
  8
0
  67
0
  10
168.091826
  20
119.269338
  30
0.0
  0
VERTEX
  8
0
  67
0
  10
168.303513
  20
119.108459
  30
0.0
  0
VERTEX
  8
0
  67
0
  10
168.51773
  20
118.950801
  30
0.0
  0
VERTEX
  8
0
  67
0
  10
168.734398
  20
118.796417
  30
0.0
  0
VERTEX
  8
0
  67
0
  10
168.953438
  20
118.645361
  30
0.0
  0
VERTEX
  8
0
  67
0
  10
169.174771
  20
118.497685
  30
0.0
  0
VERTEX
  8
0
  67
0
  10
169.39832
  20
118.353445
  30
0.0
  0
VERTEX
  8
0
  67
0
  10
169.624004
  20
118.212692
  30
0.0
  0
VERTEX
  8
0
  67
0
  10
169.851746
  20
118.07548
  30
0.0
  0
VERTEX
  8
0
  67
0
  10
170.081466
  20
117.941863
  30
0.0
  0
VERTEX
  8
0
  67
0
  10
170.313085
  20
117.811895
  30
0.0
  0
VERTEX
  8
0
  67
0
  10
170.546525
  20
117.685628
  30
0.0
  0
VERTEX
  8
0
  67
0
  10
170.781706
  20
117.563116
  30
0.0
  0
VERTEX
  8
0
  67
0
  10
171.018551
  20
117.444414
  30
0.0
  0
VERTEX
  8
0
  67
0
  10
171.25698
  20
117.329573
  30
0.0
  0
VERTEX
  8
0
  67
0
  10
171.43804
  20
117.246469
  30
0.0
  0
VERTEX
  8
0
  67
0
  10
171.621161
  20
117.167074
  30
0.0
  0
VERTEX
  8
0
  67
0
  10
171.80622
  20
117.091416
  30
0.0
  0
VERTEX
  8
0
  67
0
  10
171.993092
  20
117.019526
  30
0.0
  0
VERTEX
  8
0
  67
0
  10
172.181655
  20
116.951433
  30
0.0
  0
VERTEX
  8
0
  67
0
  10
172.371785
  20
116.887166
  30
0.0
  0
VERTEX
  8
0
  67
0
  10
172.563357
  20
116.826755
  30
0.0
  0
VERTEX
  8
0
  67
0
  10
172.756249
  20
116.77023
  30
0.0
  0
VERTEX
  8
0
  67
0
  10
172.950336
  20
116.717619
  30
0.0
  0
VERTEX
  8
0
  67
0
  10
173.145496
  20
116.668953
  30
0.0
  0
VERTEX
  8
0
  67
0
  10
173.341603
  20
116.624261
  30
0.0
  0
VERTEX
  8
0
  67
0
  10
173.538535
  20
116.583572
  30
0.0
  0
VERTEX
  8
0
  67
0
  10
173.736168
  20
116.546916
  30
0.0
  0
VERTEX
  8
0
  67
0
  10
173.934377
  20
116.514323
  30
0.0
  0
VERTEX
  8
0
  67
0
  10
174.133041
  20
116.485822
  30
0.0
  0
VERTEX
  8
0
  67
0
  10
174.332034
  20
116.461442
  30
0.0
  0
VERTEX
  8
0
  67
0
  10
174.531233
  20
116.441213
  30
0.0
  0
VERTEX
  8
0
  67
0
  10
174.730515
  20
116.425165
  30
0.0
  0
VERTEX
  8
0
  67
0
  10
174.929756
  20
116.413327
  30
0.0
  0
VERTEX
  8
0
  67
0
  10
175.128831
  20
116.405728
  30
0.0
  0
SEQEND
  0
ENDBLK
  0
ENDSEC
  0
SECTION
  2
ENTITIES
  0
CIRCLE
  8
0
  6
CONTINUOUS
  62
7
  67
0
  10
113.5
  20
56.0
  40
16.5
  0
CIRCLE
  8
0
  6
CONTINUOUS
  62
7
  67
0
  10
113.5
  20
56.0
  40
1.0
  0
LINE
  8
0
  6
CONTINUOUS
  62
7
  67
0
  10
67.499999
  20
47.999999
  11
67.499999
  21
63.999999
  0
POLYLINE
  8
0
  6
CONTINUOUS
  62
7
  67
0
  66
1
  70
1
  0
VERTEX
  8
0
  67
0
  10
67.499999
  20
66.999999
  30
0.0
  0
VERTEX
  8
0
  67
0
  10
70.499999
  20
66.999999
  30
0.0
  0
VERTEX
  8
0
  67
0
  10
70.499999
  20
44.999999
  30
0.0
  0
VERTEX
  8
0
  67
0
  10
67.499999
  20
44.999999
  30
0.0
  0
VERTEX
  8
0
  67
0
  10
67.499999
  20
66.999999
  30
0.0
  0
SEQEND
  0
LINE
  8
0
  6
CONTINUOUS
  62
7
  67
0
  10
71.499999
  20
47.999999
  11
71.499999
  21
63.999999
  0
LINE
  8
0
  6
CONTINUOUS
  62
7
  67
0
  10
70.499999
  20
66.999999
  11
71.499999
  21
63.999999
  0
LINE
  8
0
  6
CONTINUOUS
  62
7
  67
0
  10
71.499999
  20
47.999999
  11
70.499999
  21
44.999999
  0
LINE
  8
0
  6
CONTINUOUS
  62
7
  67
0
  10
67.499999
  20
76.499999
  11
67.499999
  21
35.499999
  0
INSERT
  8
0
  6
CONTINUOUS
  62
7
  67
0
  2
*C0
  10
0.0
  20
0.0
  1001
ACAD
  1000
TCW30CURVE
  1002
{
  1070
20
  1070
0
  1070
1
  1000

  1070
0
  1071
0
  1040
1.0
  1040
0.0
  1000
CONTINUOUS
  1000
0
  1071
4
  1071
162
  1010
67.499999
  1020
76.499999
  1071
6274
  1010
47.499999
  1020
76.499999
  1071
6274
  1010
20.499999
  1020
60.499999
  1071
162
  1010
20.499999
  1020
55.999999
  1002
}
  0
INSERT
  8
0
  6
CONTINUOUS
  62
7
  67
0
  2
*C1
  10
0.0
  20
0.0
  1001
ACAD
  1000
TCW30CURVE
  1002
{
  1070
20
  1070
0
  1070
1
  1000

  1070
0
  1071
0
  1040
1.0
  1040
0.0
  1000
CONTINUOUS
  1000
0
  1071
4
  1071
162
  1010
67.499999
  1020
35.499999
  1071
6274
  1010
47.499999
  1020
35.499999
  1071
6274
  1010
20.499999
  1020
51.499999
  1071
162
  1010
20.499999
  1020
55.999999
  1002
}
  0
LINE
  8
0
  6
CONTINUOUS
  62
7
  67
0
  10
64.499999
  20
76.499999
  11
64.499999
  21
35.499999
  0
LINE
  8
0
  6
CONTINUOUS
  62
7
  67
0
  10
125.5
  20
44.675248
  11
125.5
  21
34.5
  0
LINE
  8
0
  6
CONTINUOUS
  62
7
  67
0
  10
124.5
  20
33.5
  11
102.5
  21
33.5
  0
LINE
  8
0
  6
CONTINUOUS
  62
7
  67
0
  10
101.5
  20
34.5
  11
101.5
  21
44.675248
  0
ARC
  8
0
  6
CONTINUOUS
  62
7
  67
0
  10
102.5
  20
34.5
  40
1.0
  50
180.0
  51
270.0
  0
ARC
  8
0
  6
CONTINUOUS
  62
7
  67
0
  10
124.5
  20
34.5
  40
1.0
  50
-90.0
  51
0.0
  0
LINE
  8
0
  6
DASHED
  62
7
  67
0
  10
101.5
  20
67.324752
  11
101.5
  21
77.5
  0
LINE
  8
0
  6
DASHED
  62
7
  67
0
  10
102.5
  20
78.5
  11
124.5
  21
78.5
  0
LINE
  8
0
  6
DASHED
  62
7
  67
0
  10
125.5
  20
77.5
  11
125.5
  21
67.324752
  0
ARC
  8
0
  6
DASHED
  62
7
  67
0
  10
124.5
  20
77.5
  40
1.0
  50
0.0
  51
90.0
  0
ARC
  8
0
  6
DASHED
  62
7
  67
0
  10
102.5
  20
77.5
  40
1.0
  50
90.0
  51
180.0
  0
LINE
  8
0
  6
CONTINUOUS
  62
7
  67
0
  10
126.906488
  20
45.027045
  11
137.387271
  21
45.027045
  0
ARC
  8
0
  6
CONTINUOUS
  62
7
  67
0
  10
133.122468
  20
65.509821
  40
1.0
  50
-90.0
  51
0.0
  0
ARC
  8
0
  6
CONTINUOUS
  62
7
  67
0
  10
133.122468
  20
68.509821
  40
1.0
  50
0.0
  51
90.0
  0
LINE
  8
0
  6
CONTINUOUS
  62
7
  67
0
  10
131.622473
  20
47.527047
  11
133.122473
  21
47.527047
  0
LINE
  8
0
  6
CONTINUOUS
  62
7
  67
0
  10
134.122473
  20
46.527047
  11
134.122473
  21
43.527047
  0
POLYLINE
  8
0
  6
CONTINUOUS
  62
7
  67
0
  66
1
  0
VERTEX
  8
0
  67
0
  10
133.122473
  20
42.527047
  30
0.0
  0
VERTEX
  8
0
  67
0
  10
131.622473
  20
42.527047
  30
0.0
  0
VERTEX
  8
0
  67
0
  10
131.622473
  20
47.527047
  30
0.0
  0
SEQEND
  0
ARC
  8
0
  6
CONTINUOUS
  62
7
  67
0
  10
133.122473
  20
43.527047
  40
1.0
  50
-90.0
  51
0.0
  0
ARC
  8
0
  6
CONTINUOUS
  62
7
  67
0
  10
133.122473
  20
46.527047
  40
1.0
  50
0.0
  51
90.0
  0
LINE
  8
0
  6
CONTINUOUS
  62
7
  67
0
  10
131.612728
  20
42.000001
  11
125.5
  21
42.000001
  0
CIRCLE
  8
0
  6
CONTINUOUS
  62
7
  67
0
  10
113.5
  20
56.0
  40
7.0
  0
CIRCLE
  8
0
  6
CONTINUOUS
  62
7
  67
0
  10
113.5
  20
56.0
  40
4.5
  0
CIRCLE
  8
0
  6
DASHED
  62
7
  67
0
  10
106.5
  20
74.5
  40
1.5
  0
CIRCLE
  8
0
  6
DASHED
  62
7
  67
0
  10
120.5
  20
74.5
  40
1.5
  0
LINE
  8
0
  6
DASHED
  62
7
  67
0
  10
104.0
  20
74.5
  11
109.0
  21
74.5
  0
LINE
  8
0
  6
DASHED
  62
7
  67
0
  10
106.5
  20
77.0
  11
106.5
  21
72.0
  0
LINE
  8
0
  6
DASHED
  62
7
  67
0
  10
118.0
  20
74.5
  11
123.0
  21
74.5
  0
LINE
  8
0
  6
DASHED
  62
7
  67
0
  10
120.5
  20
72.0
  11
120.5
  21
77.0
  0
CIRCLE
  8
0
  6
CONTINUOUS
  62
7
  67
0
  10
106.5
  20
37.5
  40
1.5
  0
CIRCLE
  8
0
  6
CONTINUOUS
  62
7
  67
0
  10
120.5
  20
37.5
  40
1.5
  0
LINE
  8
0
  6
CONTINUOUS
  62
7
  67
0
  10
104.0
  20
37.5
  11
109.0
  21
37.5
  0
LINE
  8
0
  6
CONTINUOUS
  62
7
  67
0
  10
106.5
  20
35.0
  11
106.5
  21
40.0
  0
LINE
  8
0
  6
CONTINUOUS
  62
7
  67
0
  10
118.0
  20
37.5
  11
123.0
  21
37.5
  0
LINE
  8
0
  6
CONTINUOUS
  62
7
  67
0
  10
120.5
  20
40.0
  11
120.5
  21
35.0
  0
LINE
  8
0
  6
CONTINUOUS
  62
7
  67
0
  10
126.624405
  20
66.0
  11
100.375595
  21
66.0
  0
LINE
  8
0
  6
CONTINUOUS
  62
7
  67
0
  10
120.208204
  20
58.0
  11
129.878339
  21
58.0
  0
LINE
  8
0
  6
CONTINUOUS
  62
7
  67
0
  10
129.969669
  20
57.0
  11
120.465738
  21
57.0
  0
LINE
  8
0
  6
CONTINUOUS
  62
7
  67
0
  10
129.507811
  20
60.0
  11
119.324327
  21
60.0
  0
LINE
  8
0
  6
CONTINUOUS
  62
7
  67
0
  10
107.635791
  20
60.0
  11
97.492189
  21
60.0
  0
LINE
  8
0
  6
CONTINUOUS
  62
7
  67
0
  10
106.521751
  20
57.0
  11
97.030331
  21
57.0
  0
LINE
  8
0
  6
CONTINUOUS
  62
7
  67
0
  10
97.121661
  20
58.0
  11
106.791797
  21
58.0
  0
CIRCLE
  8
0
  6
CONTINUOUS
  62
7
  67
0
  10
113.5
  20
69.0
  40
2.5
  0
CIRCLE
  8
0
  6
CONTINUOUS
  62
7
  67
0
  10
102.24167
  20
62.5
  40
2.5
  0
CIRCLE
  8
0
  6
CONTINUOUS
  62
7
  67
0
  10
102.24167
  20
49.5
  40
2.5
  0
CIRCLE
  8
0
  6
CONTINUOUS
  62
7
  67
0
  10
113.5
  20
43.0
  40
2.5
  0
CIRCLE
  8
0
  6
CONTINUOUS
  62
7
  67
0
  10
124.75833
  20
49.5
  40
2.5
  0
CIRCLE
  8
0
  6
CONTINUOUS
  62
7
  67
0
  10
124.75833
  20
62.5
  40
2.5
  0
LINE
  8
0
  6
CONTINUOUS
  62
7
  67
0
  10
123.661201
  20
69.0
  11
116.0
  21
69.0
  0
LINE
  8
0
  6
CONTINUOUS
  62
7
  67
0
  10
111.0
  20
69.0
  11
103.338799
  21
69.0
  0
LINE
  8
0
  6
CONTINUOUS
  62
7
  67
0
  10
118.39898
  20
61.0
  11
122.75833
  21
61.0
  0
LINE
  8
0
  6
CONTINUOUS
  62
7
  67
0
  10
126.75833
  20
61.0
  11
129.224185
  21
61.0
  0
LINE
  8
0
  6
CONTINUOUS
  62
7
  67
0
  10
104.24167
  20
64.0
  11
122.75833
  21
64.0
  0
LINE
  8
0
  6
CONTINUOUS
  62
7
  67
0
  10
122.308841
  20
63.0
  11
104.691159
  21
63.0
  0
LINE
  8
0
  6
CONTINUOUS
  62
7
  67
0
  10
97.775815
  20
61.0
  11
100.24167
  21
61.0
  0
LINE
  8
0
  6
CONTINUOUS
  62
7
  67
0
  10
104.24167
  20
61.0
  11
108.60102
  21
61.0
  0
LINE
  8
0
  6
CONTINUOUS
  62
7
  67
0
  10
101.201626
  20
67.0
  11
112.0
  21
67.0
  0
LINE
  8
0
  6
CONTINUOUS
  62
7
  67
0
  10
115.0
  20
67.0
  11
125.798374
  21
67.0
  0
LINE
  8
0
  6
CONTINUOUS
  62
7
  67
0
  10
126.624405
  20
46.0
  11
100.375595
  21
46.0
  0
LINE
  8
0
  6
CONTINUOUS
  62
7
  67
0
  10
120.208204
  20
54.0
  11
129.878339
  21
54.0
  0
LINE
  8
0
  6
CONTINUOUS
  62
7
  67
0
  10
129.969669
  20
55.0
  11
120.465738
  21
55.0
  0
LINE
  8
0
  6
CONTINUOUS
  62
7
  67
0
  10
129.507811
  20
52.0
  11
119.324327
  21
52.0
  0
LINE
  8
0
  6
CONTINUOUS
  62
7
  67
0
  10
107.635791
  20
52.0
  11
97.492189
  21
52.0
  0
LINE
  8
0
  6
CONTINUOUS
  62
7
  67
0
  10
106.521751
  20
55.0
  11
97.030331
  21
55.0
  0
LINE
  8
0
  6
CONTINUOUS
  62
7
  67
0
  10
97.121661
  20
54.0
  11
106.791797
  21
54.0
  0
LINE
  8
0
  6
CONTINUOUS
  62
7
  67
0
  10
123.661201
  20
43.0
  11
116.0
  21
43.0
  0
LINE
  8
0
  6
CONTINUOUS
  62
7
  67
0
  10
111.0
  20
43.0
  11
103.338799
  21
43.0
  0
LINE
  8
0
  6
CONTINUOUS
  62
7
  67
0
  10
118.39898
  20
51.0
  11
122.75833
  21
51.0
  0
LINE
  8
0
  6
CONTINUOUS
  62
7
  67
0
  10
126.75833
  20
51.0
  11
129.224185
  21
51.0
  0
LINE
  8
0
  6
CONTINUOUS
  62
7
  67
0
  10
104.24167
  20
48.0
  11
122.75833
  21
48.0
  0
LINE
  8
0
  6
CONTINUOUS
  62
7
  67
0
  10
122.308841
  20
49.0
  11
104.691159
  21
49.0
  0
LINE
  8
0
  6
CONTINUOUS
  62
7
  67
0
  10
97.775815
  20
51.0
  11
100.24167
  21
51.0
  0
LINE
  8
0
  6
CONTINUOUS
  62
7
  67
0
  10
104.24167
  20
51.0
  11
108.60102
  21
51.0
  0
LINE
  8
0
  6
CONTINUOUS
  62
7
  67
0
  10
101.201626
  20
45.0
  11
112.0
  21
45.0
  0
LINE
  8
0
  6
CONTINUOUS
  62
7
  67
0
  10
115.0
  20
45.0
  11
125.798374
  21
45.0
  0
POLYLINE
  8
0
  6
CONTINUOUS
  62
7
  67
0
  66
1
  0
VERTEX
  8
0
  67
0
  10
132.999996
  20
93.887837
  30
0.0
  0
VERTEX
  8
0
  67
0
  10
132.999996
  20
56.000001
  30
0.0
  0
VERTEX
  8
0
  67
0
  10
93.999996
  20
56.000001
  30
0.0
  0
VERTEX
  8
0
  67
0
  10
93.999996
  20
92.248229
  30
0.0
  0
SEQEND
  0
INSERT
  8
0
  6
CONTINUOUS
  62
7
  67
0
  2
*G2
  10
0.0
  20
0.0
  1001
ACAD
  1000
ACAD_TCW25GROUP
  1002
{
  1000
Groupe_1
  1002
}
  0
CIRCLE
  8
0
  6
CONTINUOUS
  62
7
  67
0
  210
0.526783
  220
0.0
  230
0.85
  10
56.0
  20
-67.7875
  30
42.010919
  40
5.0
  1001
ACAD
  1000
TCW40_ELL_ARC
  1002
{
  1040
79.75
  1040
56.0
  1040
0.0
  1040
0.0
  1040
-5.0
  1040
0.0
  1040
0.0
  1040
0.0
  1040
1.0
  1040
0.85
  1040
0.0
  1040
6.283185
  1002
}
  0
ARC
  8
0
  6
CONTINUOUS
  62
7
  67
0
  210
0.515079
  220
0.0
  230
0.857143
  10
56.0
  20
-72.0
  30
43.266615
  40
7.0
  50
-224.419447
  51
44.419447
  1001
ACAD
  1000
TCW40_ELL_ARC
  1002
{
  1040
84.0
  1040
56.0
  1040
0.0
  1040
0.0
  1040
-7.0
  1040
0.0
  1040
0.0
  1040
0.0
  1040
1.0
  1040
0.857143
  1040
5.50792
  1040
3.916858
  1002
}
  0
ARC
  8
0
  6
CONTINUOUS
  62
7
  67
0
  210
0.515079
  220
0.0
  230
0.857143
  10
56.0
  20
-72.857143
  30
43.781694
  40
7.0
  50
-175.219808
  51
-4.780192
  1001
ACAD
  1000
TCW40_ELL_ARC
  1002
{
  1040
85.0
  1040
56.0
  1040
0.0
  1040
0.0
  1040
-7.0
  1040
0.0
  1040
0.0
  1040
0.0
  1040
1.0
  1040
0.857143
  1040
0.08343
  1040
3.058162
  1002
}
  0
ARC
  8
0
  6
CONTINUOUS
  62
7
  67
0
  210
0.515079
  220
0.0
  230
0.857143
  10
56.0
  20
-73.285714
  30
44.039233
  40
7.0
  50
-180.0
  51
0.0
  1001
ACAD
  1000
TCW40_ELL_ARC
  1002
{
  1040
85.5
  1040
56.0
  1040
0.0
  1040
0.0
  1040
-7.0
  1040
0.0
  1040
0.0
  1040
0.0
  1040
1.0
  1040
0.857143
  1040
0.0
  1040
3.141593
  1002
}
  0
LINE
  8
0
  6
CONTINUOUS
  62
7
  67
0
  10
84.0
  20
63.0
  11
93.999996
  21
63.0
  0
LINE
  8
0
  6
CONTINUOUS
  62
7
  67
0
  10
84.0
  20
49.0
  11
98.558447
  21
49.0
  0
ARC
  8
0
  6
CONTINUOUS
  62
7
  67
0
  210
0.526783
  220
0.0
  230
0.85
  10
56.0
  20
-71.1875
  30
44.11805
  40
5.0
  50
-176.627713
  51
-3.372287
  1001
ACAD
  1000
TCW40_ELL_ARC
  1002
{
  1040
83.75
  1040
56.0
  1040
0.0
  1040
0.0
  1040
-5.0
  1040
0.0
  1040
0.0
  1040
0.0
  1040
1.0
  1040
0.85
  1040
0.058858
  1040
3.082735
  1002
}
  0
LINE
  8
0
  6
CONTINUOUS
  62
7
  67
0
  10
80.0
  20
61.0
  11
84.0
  21
61.0
  0
LINE
  8
0
  6
CONTINUOUS
  62
7
  67
0
  10
79.5
  20
51.0
  11
84.0
  21
51.0
  0
LINE
  8
0
  6
CONTINUOUS
  62
7
  67
0
  10
97.030331
  20
55.0
  11
91.43846
  21
55.0
  0
LINE
  8
0
  6
CONTINUOUS
  62
7
  67
0
  10
91.43846
  20
57.0
  11
93.999996
  21
57.0
  0
LINE
  8
0
  6
CONTINUOUS
  62
7
  67
0
  10
71.499997
  20
63.999999
  11
93.999996
  21
63.999999
  0
LINE
  8
0
  6
CONTINUOUS
  62
7
  67
0
  10
82.5
  20
64.0
  11
93.999996
  21
67.631578
  0
LINE
  8
0
  6
CONTINUOUS
  62
7
  67
0
  10
131.612728
  20
56.000001
  11
131.612728
  21
42.000001
  0
LINE
  8
0
  6
CONTINUOUS
  62
7
  67
0
  10
132.999996
  20
69.509821
  11
133.122468
  21
69.509821
  0
LINE
  8
0
  6
CONTINUOUS
  62
7
  67
0
  10
134.122468
  20
68.509821
  11
134.122468
  21
65.509821
  0
LINE
  8
0
  6
CONTINUOUS
  62
7
  67
0
  10
133.122468
  20
64.509821
  11
132.999996
  21
64.509821
  0
CIRCLE
  8
0
  6
CONTINUOUS
  62
7
  67
0
  210
0.582961
  220
0.0
  230
0.8125
  10
56.0
  20
-64.796875
  30
46.491155
  40
4.0
  1001
ACAD
  1000
TCW40_ELL_ARC
  1002
{
  1040
79.75
  1040
56.0
  1040
0.0
  1040
0.0
  1040
-4.0
  1040
0.0
  1040
0.0
  1040
0.0
  1040
1.0
  1040
0.8125
  1040
0.0
  1040
6.283185
  1002
}
  0
POLYLINE
  8
0
  6
CONTINUOUS
  62
7
  67
0
  66
1
  70
1
  0
VERTEX
  8
0
  67
0
  10
84.5
  20
49.0
  30
0.0
  0
VERTEX
  8
0
  67
0
  10
92.5
  20
49.0
  30
0.0
  0
VERTEX
  8
0
  67
0
  10
92.5
  20
34.0
  30
0.0
  0
VERTEX
  8
0
  67
0
  10
84.5
  20
34.0
  30
0.0
  0
VERTEX
  8
0
  67
0
  10
84.5
  20
49.0
  30
0.0
  0
SEQEND
  0
POLYLINE
  8
0
  6
CONTINUOUS
  62
7
  67
0
  66
1
  70
1
  0
VERTEX
  8
0
  67
0
  10
86.5
  20
34.0
  30
0.0
  0
VERTEX
  8
0
  67
0
  10
90.5
  20
34.0
  30
0.0
  0
VERTEX
  8
0
  67
0
  10
90.5
  20
17.0
  30
0.0
  0
VERTEX
  8
0
  67
0
  10
86.5
  20
17.0
  30
0.0
  0
VERTEX
  8
0
  67
0
  10
86.5
  20
34.0
  30
0.0
  0
SEQEND
  0
POLYLINE
  8
0
  6
CONTINUOUS
  62
7
  67
0
  66
1
  70
1
  0
VERTEX
  8
0
  67
0
  10
83.5
  20
17.0
  30
0.0
  0
VERTEX
  8
0
  67
0
  10
93.5
  20
17.0
  30
0.0
  0
VERTEX
  8
0
  67
0
  10
93.5
  20
14.0
  30
0.0
  0
VERTEX
  8
0
  67
0
  10
83.5
  20
14.0
  30
0.0
  0
VERTEX
  8
0
  67
0
  10
83.5
  20
17.0
  30
0.0
  0
SEQEND
  0
LINE
  8
0
  6
CONTINUOUS
  62
7
  67
0
  10
82.5
  20
48.0
  11
84.5
  21
47.368421
  0
LINE
  8
0
  6
CONTINUOUS
  62
7
  67
0
  10
92.5
  20
44.842105
  11
101.5
  21
42.0
  0
LINE
  8
0
  6
CONTINUOUS
  62
7
  67
0
  10
98.999999
  20
47.999999
  11
92.5
  21
47.999999
  0
LINE
  8
0
  6
CONTINUOUS
  62
7
  67
0
  10
84.5
  20
47.999999
  11
71.499999
  21
47.999999
  0
LINE
  8
0
  6
CONTINUOUS
  62
7
  67
0
  10
84.0
  20
17.0
  11
84.0
  21
14.0
  0
LINE
  8
0
  6
CONTINUOUS
  62
7
  67
0
  10
84.5
  20
17.0
  11
84.5
  21
14.0
  0
LINE
  8
0
  6
CONTINUOUS
  62
7
  67
0
  10
93.0
  20
17.0
  11
93.0
  21
14.0
  0
LINE
  8
0
  6
CONTINUOUS
  62
7
  67
0
  10
92.5
  20
17.0
  11
92.5
  21
14.0
  0
LINE
  8
0
  6
CONTINUOUS
  62
7
  67
0
  10
85.0
  20
17.0
  11
85.0
  21
14.0
  0
LINE
  8
0
  6
CONTINUOUS
  62
7
  67
0
  10
86.0
  20
17.0
  11
86.0
  21
14.0
  0
LINE
  8
0
  6
CONTINUOUS
  62
7
  67
0
  10
87.0
  20
17.0
  11
87.0
  21
14.0
  0
LINE
  8
0
  6
CONTINUOUS
  62
7
  67
0
  10
88.5
  20
17.0
  11
88.5
  21
14.0
  0
LINE
  8
0
  6
CONTINUOUS
  62
7
  67
0
  10
90.0
  20
17.0
  11
90.0
  21
14.0
  0
LINE
  8
0
  6
CONTINUOUS
  62
7
  67
0
  10
91.0
  20
17.0
  11
91.0
  21
14.0
  0
LINE
  8
0
  6
CONTINUOUS
  62
7
  67
0
  10
92.0
  20
17.0
  11
92.0
  21
14.0
  0
LINE
  8
0
  6
CONTINUOUS
  62
7
  67
0
  10
86.5
  20
33.0
  11
90.5
  21
32.5
  0
LINE
  8
0
  6
CONTINUOUS
  62
7
  67
0
  10
90.5
  20
33.5
  11
86.5
  21
34.0
  0
LINE
  8
0
  6
CONTINUOUS
  62
7
  67
0
  10
86.5
  20
32.0
  11
90.5
  21
31.5
  0
LINE
  8
0
  6
CONTINUOUS
  62
7
  67
0
  10
86.5
  20
31.0
  11
90.5
  21
30.5
  0
LINE
  8
0
  6
CONTINUOUS
  62
7
  67
0
  10
86.5
  20
30.0
  11
90.5
  21
29.5
  0
LINE
  8
0
  6
CONTINUOUS
  62
7
  67
0
  10
86.5
  20
29.0
  11
90.5
  21
28.5
  0
LINE
  8
0
  6
CONTINUOUS
  62
7
  67
0
  10
86.5
  20
28.0
  11
90.5
  21
27.5
  0
LINE
  8
0
  6
CONTINUOUS
  62
7
  67
0
  10
86.5
  20
27.0
  11
90.5
  21
26.5
  0
LINE
  8
0
  6
CONTINUOUS
  62
7
  67
0
  10
86.5
  20
26.0
  11
90.5
  21
25.5
  0
LINE
  8
0
  6
CONTINUOUS
  62
7
  67
0
  10
86.5
  20
25.0
  11
90.5
  21
24.5
  0
LINE
  8
0
  6
CONTINUOUS
  62
7
  67
0
  10
86.5
  20
24.0
  11
90.5
  21
23.5
  0
LINE
  8
0
  6
CONTINUOUS
  62
7
  67
0
  10
86.5
  20
23.0
  11
90.5
  21
22.5
  0
LINE
  8
0
  6
CONTINUOUS
  62
7
  67
0
  10
86.5
  20
22.0
  11
90.5
  21
21.5
  0
LINE
  8
0
  6
CONTINUOUS
  62
7
  67
0
  10
86.5
  20
21.0
  11
90.5
  21
20.5
  0
LINE
  8
0
  6
CONTINUOUS
  62
7
  67
0
  10
86.5
  20
20.0
  11
90.5
  21
19.5
  0
LINE
  8
0
  6
CONTINUOUS
  62
7
  67
0
  10
86.5
  20
19.0
  11
90.5
  21
18.5
  0
LINE
  8
0
  6
CONTINUOUS
  62
7
  67
0
  10
90.5
  20
17.5
  11
86.5
  21
18.0
  0
INSERT
  8
0
  6
CONTINUOUS
  62
7
  67
0
  2
*G3
  10
0.0
  20
0.0
  1001
ACAD
  1000
ACAD_TCW25GROUP
  1002
{
  1000
Groupe_2
  1002
}
  0
INSERT
  8
0
  6
CONTINUOUS
  62
7
  67
0
  2
*G4
  10
0.0
  20
0.0
  1001
ACAD
  1000
ACAD_TCW25GROUP
  1002
{
  1000
Groupe_3
  1002
}
  0
ENDSEC
  0
EOF
