  0
SECTION
  2
HEADER
  9
$ACADVER
  1
AC1009
  9
$ANGBASE
  50
0.0
  9
$ANGDIR
  70
0
  9
$ATTDIA
  70
1
  9
$ATTMODE
  70
1
  9
$ATTREQ
  70
1
  9
$AUNITS
  70
0
  9
$AUPREC
  70
2
  9
$AXISMODE
  70
0
  9
$CECOLOR
  62
256
  9
$CELTYPE
  6
BYLAYER
  9
$CLAYER
  8
0
  9
$DIMALT
  70
0
  9
$DIMALTD
  70
2
  9
$DIMALTF
  40
0.394
  9
$DIMAPOST
  1

  9
$DIMASO
  70
1
  9
$DIMASZ
  40
3.0
  9
$DIMBLK
  1

  9
$DIMBLK1
  1

  9
$DIMBLK2
  1

  9
$DIMCEN
  40
0.09
  9
$DIMCLRD
  70
256
  9
$DIMCLRE
  70
256
  9
$DIMCLRT
  70
256
  9
$DIMDLE
  40
0.0
  9
$DIMDLI
  40
7.5
  9
$DIMEXE
  40
2.0
  9
$DIMEXO
  40
1.0
  9
$DIMGAP
  40
2.0
  9
$DIMLFAC
  40
1.0
  9
$DIMLIM
  70
0
  9
$DIMPOST
  1

  9
$DIMRND
  40
0.2
  9
$DIMSAH
  70
0
  9
$DIMSCALE
  40
1.0
  9
$DIMSE1
  70
0
  9
$DIMSE2
  70
0
  9
$DIMSHO
  70
1
  9
$DIMSOXD
  70
0
  9
$DIMSTYLE
  2
*UNNAMED
  9
$DIMTAD
  70
1
  9
$DIMTFAC
  40
1.0
  9
$DIMTIH
  70
1
  9
$DIMTIX
  70
0
  9
$DIMTM
  40
0.0
  9
$DIMTOFL
  70
1
  9
$DIMTOH
  70
0
  9
$DIMTOL
  70
0
  9
$DIMTP
  40
0.0
  9
$DIMTSZ
  40
0.0
  9
$DIMTVP
  40
0.0
  9
$DIMTXT
  40
5.0
  9
$DIMZIN
  70
1
  9
$DRAGMODE
  70
0
  9
$ELEVATION
  40
0.0
  9
$EXTMAX
  10
0.0
  20
0.0
  30
0.0
  9
$EXTMIN
  10
0.0
  20
0.0
  30
0.0
  9
$FILLETRAD
  40
1.0
  9
$FILLMODE
  70
1
  9
$INSBASE
  10
0.0
  20
0.0
  30
0.0
  9
$LIMMAX
  10
210.0
  20
297.0
  9
$LIMMIN
  10
0.0
  20
0.0
  9
$LTSCALE
  40
1.0
  9
$LUNITS
  70
2
  9
$LUPREC
  70
2
  9
$MENU
  1
acad
  9
$MIRRTEXT
  70
0
  9
$ORTHOMODE
  70
0
  9
$OSMODE
  70
0
  9
$PDMODE
  70
0
  9
$PDSIZE
  40
0.0
  9
$PEXTMAX
  10
0.0
  20
0.0
  30
0.0
  9
$PEXTMIN
  10
0.0
  20
0.0
  30
0.0
  9
$PLIMCHECK
  70
0
  9
$PLIMMAX
  10
0.0
  20
0.0
  9
$PLIMMIN
  10
0.0
  20
0.0
  9
$PLINEWID
  40
0.0
  9
$PUCSXDIR
  10
1.0
  20
0.0
  30
0.0
  9
$PUCSYDIR
  10
0.0
  20
1.0
  30
0.0
  9
$QTEXTMODE
  70
0
  9
$SHADEDGE
  70
3
  9
$SHADEDIF
  70
70
  9
$SKETCHINC
  40
1.0
  9
$SPLFRAME
  70
0
  9
$SPLINESEGS
  70
20
  9
$SPLINETYPE
  70
0
  9
$SURFTAB1
  70
6
  9
$SURFTAB2
  70
6
  9
$TDINDWG
  40
0.0
  9
$TDUPDATE
  40
2449702.667959
  9
$TDUSRTIMER
  40
0.0
  9
$TEXTSIZE
  40
5.0
  9
$TEXTSTYLE
  7
STANDARD
  9
$TILEMODE
  70
1
  9
$TRACEWID
  40
1.0
  9
$UCSORG
  10
0.0
  20
0.0
  30
0.0
  9
$UCSXDIR
  10
1.0
  20
0.0
  30
0.0
  9
$UCSYDIR
  10
0.0
  20
1.0
  30
0.0
  9
$UNITMODE
  70
0
  9
$WORLDVIEW
  70
1
  9
$GRIDMODE
  70
1
  9
$PINSBASE
  10
0.0
  20
0.0
  30
0.0
  9
$PSLTSCALE
  70
1
  9
$TREEDEPTH
  70
3020
  0
ENDSEC
  0
SECTION
  2
TABLES
  0
TABLE
  2
VPORT
  70
1
  0
VPORT
  2
*ACTIVE
  70
0
  10
0.0
  20
0.0
  11
1.0
  21
1.0
  12
104.999996
  22
148.500004
  13
0.0
  23
0.0
  14
0.5
  24
0.5
  15
0.5
  25
0.5
  16
0.0
  26
0.0
  36
1.0
  17
0.0
  27
0.0
  37
0.0
  40
306.312248
  41
1.283333
  42
50.0
  43
0.0
  44
0.0
  50
0.0
  51
0.0
  71
0
  72
100
  73
1
  74
1
  75
0
  76
1
  77
0
  78
0
  0
ENDTAB
  0
TABLE
  2
LTYPE
  70
12
  0
LTYPE
  2
CONTINUOUS
  70
0
  3
CONTINUOUS
  72
65
  73
0
  40
0.0
  0
LTYPE
  2
BORDER
  70
0
  3
BORDER
  72
65
  73
6
  40
1.75
  49
0.5
  49
-0.25
  49
0.5
  49
-0.25
  49
0.0
  49
-0.25
  0
LTYPE
  2
CENTER
  70
0
  3
CENTER
  72
65
  73
4
  40
2.0
  49
1.25
  49
-0.25
  49
0.25
  49
-0.25
  0
LTYPE
  2
DASHDOT
  70
0
  3
DASHDOT
  72
65
  73
4
  40
1.0
  49
0.5
  49
-0.25
  49
0.0
  49
-0.25
  0
LTYPE
  2
DASHED
  70
0
  3
DASHED
  72
65
  73
2
  40
0.75
  49
0.5
  49
-0.25
  0
LTYPE
  2
DIVIDE
  70
0
  3
DIVIDE
  72
65
  73
6
  40
1.25
  49
0.5
  49
-0.25
  49
0.0
  49
-0.25
  49
0.0
  49
-0.25
  0
LTYPE
  2
DOT
  70
0
  3
DOT
  72
65
  73
2
  40
0.25
  49
0.0
  49
-0.25
  0
LTYPE
  2
HIDDEN
  70
0
  3
HIDDEN
  72
65
  73
2
  40
0.375
  49
0.25
  49
-0.125
  0
LTYPE
  2
PHANTOM
  70
0
  3
PHANTOM
  72
65
  73
6
  40
2.5
  49
1.25
  49
-0.25
  49
0.25
  49
-0.25
  49
0.25
  49
-0.25
  0
LTYPE
  2
$INVISIBLE
  70
0
  3
$INVISIBLE
  72
65
  73
2
  40
200.0
  49
-100.0
  49
-100.0
  0
LTYPE
  2
$MARGINS
  70
0
  3
$MARGINS
  72
65
  73
2
  40
0.075
  49
0.05
  49
-0.025
  0
LTYPE
  2
$AUXILIARY
  70
0
  3
$AUXILIARY
  72
65
  73
2
  40
0.1
  49
0.05
  49
-0.05
  0
ENDTAB
  0
TABLE
  2
LAYER
  70
3
  0
LAYER
  2
0
  70
64
  6
CONTINUOUS
  62
7
  0
LAYER
  2
PL1-ds-G
  70
64
  6
CONTINUOUS
  62
7
  0
LAYER
  2
PL2-ds-G
  70
64
  6
CONTINUOUS
  62
7
  0
ENDTAB
  0
TABLE
  2
STYLE
  70
1
  0
STYLE
  2
STANDARD
  70
0
  3
txt
  4

  40
0.0
  41
1.0
  42
0.2
  50
0.0
  71
0
  0
ENDTAB
  0
ENDSEC
  0
SECTION
  2
BLOCKS
  0
ENDSEC
  0
SECTION
  2
ENTITIES
  0
TEXT
  8
0
  62
7
  67
0
  10
82.0
  20
275.764895
  1
NPM
  40
5.411916
  7
STANDARD
  72
5
  11
99.761328
  21
275.764895
  31
0.0
  0
TEXT
  8
0
  62
7
  67
0
  10
82.901986
  20
256.82319
  1
MS 1800
  40
5.411916
  7
STANDARD
  72
5
  11
113.0
  21
256.82319
  31
0.0
  0
LINE
  8
0
  6
CONTINUOUS
  62
7
  67
0
  10
86.954543
  20
212.467737
  11
113.954543
  21
212.467737
  0
LINE
  8
0
  6
CONTINUOUS
  62
7
  67
0
  10
113.954543
  20
208.467737
  11
113.954543
  21
187.467737
  0
LINE
  8
0
  6
CONTINUOUS
  62
7
  67
0
  10
113.954543
  20
187.467737
  11
86.954543
  21
187.467737
  0
LINE
  8
0
  6
CONTINUOUS
  62
7
  67
0
  10
86.954543
  20
187.467737
  11
86.954543
  21
208.467737
  0
LINE
  8
0
  6
CONTINUOUS
  62
7
  67
0
  10
78.954543
  20
208.467737
  11
86.954543
  21
208.467737
  0
LINE
  8
0
  6
CONTINUOUS
  62
7
  67
0
  10
86.954543
  20
212.467737
  11
81.454543
  21
212.467737
  0
LINE
  8
0
  6
CONTINUOUS
  62
7
  67
0
  10
78.954543
  20
210.467737
  11
78.954543
  21
208.467737
  0
LINE
  8
0
  6
CONTINUOUS
  62
7
  67
0
  10
113.954543
  20
208.467737
  11
121.954539
  21
208.467737
  0
LINE
  8
0
  6
CONTINUOUS
  62
7
  67
0
  10
121.954539
  20
208.467737
  11
121.954539
  21
210.46774
  0
LINE
  8
0
  6
CONTINUOUS
  62
7
  67
0
  10
119.454543
  20
212.467737
  11
113.954539
  21
212.467737
  0
LINE
  8
0
  6
CONTINUOUS
  62
7
  67
0
  10
113.954543
  20
172.467737
  11
113.954543
  21
159.467737
  0
LINE
  8
0
  6
CONTINUOUS
  62
7
  67
0
  10
86.954543
  20
159.467737
  11
86.954543
  21
172.467737
  0
ARC
  8
0
  6
CONTINUOUS
  62
7
  67
0
  10
93.954543
  20
165.967737
  40
6.0
  50
-66.564582
  51
66.52833
  0
ARC
  8
0
  6
CONTINUOUS
  62
7
  67
0
  10
93.954543
  20
165.967737
  40
6.0
  50
112.507014
  51
247.528942
  0
LINE
  8
0
  6
CONTINUOUS
  62
7
  67
0
  10
87.954543
  20
212.467737
  11
102.954543
  21
212.467737
  0
LINE
  8
0
  6
CONTINUOUS
  62
7
  67
0
  10
102.954543
  20
212.467737
  11
102.954543
  21
215.467737
  0
LINE
  8
0
  6
CONTINUOUS
  62
7
  67
0
  10
102.0
  20
216.467737
  11
89.0
  21
216.467737
  0
LINE
  8
0
  6
CONTINUOUS
  62
7
  67
0
  10
87.954543
  20
215.467737
  11
87.954543
  21
212.467737
  0
LINE
  8
0
  6
CONTINUOUS
  62
7
  67
0
  10
99.954543
  20
212.467737
  11
99.954543
  21
215.467737
  0
ARC
  8
0
  6
CONTINUOUS
  62
7
  67
0
  10
81.954543
  20
165.967737
  40
2.0
  50
-150.0
  51
150.0
  0
ARC
  8
0
  6
CONTINUOUS
  62
7
  67
0
  10
118.954543
  20
165.967737
  40
2.0
  50
29.999748
  51
329.999748
  0
LINE
  8
0
  6
CONTINUOUS
  62
7
  67
0
  10
81.954543
  20
166.967737
  11
81.954543
  21
164.967737
  0
LINE
  8
0
  6
CONTINUOUS
  62
7
  67
0
  10
118.954543
  20
166.467737
  11
118.954543
  21
164.967737
  0
LINE
  8
0
  6
CONTINUOUS
  62
7
  67
0
  10
119.454543
  20
165.967737
  11
118.454543
  21
165.967737
  0
LINE
  8
0
  6
CONTINUOUS
  62
7
  67
0
  10
82.454543
  20
165.967737
  11
81.454543
  21
165.967737
  0
LINE
  8
0
  6
CONTINUOUS
  62
7
  67
0
  10
79.0
  20
170.967737
  11
86.954543
  21
170.967737
  0
LINE
  8
0
  6
CONTINUOUS
  62
7
  67
0
  10
113.954543
  20
170.967737
  11
121.954543
  21
170.967737
  0
LINE
  8
0
  6
CONTINUOUS
  62
7
  67
0
  10
79.0
  20
160.967737
  11
86.954543
  21
160.967737
  0
LINE
  8
0
  6
CONTINUOUS
  62
7
  67
0
  10
113.954543
  20
160.967737
  11
121.954543
  21
160.967737
  0
LINE
  8
0
  6
CONTINUOUS
  62
7
  67
0
  10
121.954543
  20
164.967737
  11
121.954543
  21
159.467737
  0
LINE
  8
0
  6
CONTINUOUS
  62
7
  67
0
  10
122.0
  20
166.967737
  11
120.686598
  21
166.967737
  0
LINE
  8
0
  6
CONTINUOUS
  62
7
  67
0
  10
121.954543
  20
164.967737
  11
120.68659
  21
164.967737
  0
LINE
  8
0
  6
CONTINUOUS
  62
7
  67
0
  10
79.0
  20
166.967737
  11
80.222492
  21
166.967737
  0
LINE
  8
0
  6
CONTINUOUS
  62
7
  67
0
  10
79.0
  20
164.967737
  11
80.222492
  21
164.967737
  0
ARC
  8
0
  6
CONTINUOUS
  62
7
  67
0
  10
93.954543
  20
165.967737
  40
4.5
  50
-56.979693
  51
56.52522
  0
ARC
  8
0
  6
CONTINUOUS
  62
7
  67
0
  10
93.954543
  20
165.967737
  40
4.5
  50
122.049863
  51
238.002985
  0
LINE
  8
0
  6
CONTINUOUS
  62
7
  67
0
  10
81.454543
  20
212.467737
  11
78.954543
  21
210.467737
  0
LINE
  8
0
  6
CONTINUOUS
  62
7
  67
0
  10
119.454543
  20
212.467737
  11
121.954539
  21
210.46774
  0
LINE
  8
0
  6
DASHED
  62
7
  67
0
  10
78.954543
  20
210.467737
  11
86.954543
  21
210.467737
  0
LINE
  8
0
  6
DASHED
  62
7
  67
0
  10
86.954543
  20
210.467737
  11
86.954543
  21
212.467737
  0
LINE
  8
0
  6
DASHED
  62
7
  67
0
  10
121.954543
  20
210.467737
  11
113.954543
  21
210.467737
  0
LINE
  8
0
  6
DASHED
  62
7
  67
0
  10
113.954543
  20
210.467737
  11
113.954543
  21
212.467737
  0
LINE
  8
0
  6
CONTINUOUS
  62
7
  67
0
  10
86.954543
  20
205.467737
  11
113.954543
  21
205.467737
  0
LINE
  8
0
  6
CONTINUOUS
  62
7
  67
0
  10
102.954543
  20
215.467737
  11
87.954543
  21
215.467737
  0
LINE
  8
0
  6
CONTINUOUS
  62
7
  67
0
  10
79.0
  20
172.467737
  11
79.0
  21
166.967737
  0
LINE
  8
0
  6
CONTINUOUS
  62
7
  67
0
  10
79.0
  20
164.967737
  11
79.0
  21
159.467737
  0
LINE
  8
0
  6
CONTINUOUS
  62
7
  67
0
  10
122.0
  20
166.967737
  11
122.0
  21
172.467737
  0
LINE
  8
0
  6
CONTINUOUS
  62
7
  67
0
  10
101.0
  20
168.0
  11
99.599887
  21
168.0
  0
LINE
  8
0
  6
CONTINUOUS
  62
7
  67
0
  10
101.0
  20
164.0
  11
99.622701
  21
164.0
  0
LINE
  8
0
  6
CONTINUOUS
  62
7
  67
0
  10
89.0
  20
216.467737
  11
89.0
  21
215.5
  0
LINE
  8
0
  6
CONTINUOUS
  62
7
  67
0
  10
102.0
  20
216.467737
  11
102.0
  21
215.5
  0
LINE
  8
0
  6
CONTINUOUS
  62
7
  67
0
  10
99.0
  20
215.5
  11
99.0
  21
216.5
  0
LINE
  8
0
  6
CONTINUOUS
  62
7
  67
0
  10
90.5
  20
221.5
  11
97.5
  21
221.5
  0
LINE
  8
0
  6
CONTINUOUS
  62
7
  67
0
  10
97.5
  20
221.5
  11
97.5
  21
216.5
  0
LINE
  8
0
  6
CONTINUOUS
  62
7
  67
0
  10
97.5
  20
216.5
  11
90.5
  21
216.5
  0
LINE
  8
0
  6
CONTINUOUS
  62
7
  67
0
  10
90.5
  20
216.5
  11
90.5
  21
221.5
  0
LINE
  8
0
  6
CONTINUOUS
  62
7
  67
0
  10
82.0
  20
214.0
  11
82.0
  21
207.0
  0
LINE
  8
0
  6
CONTINUOUS
  62
7
  67
0
  10
119.0
  20
214.0
  11
119.0
  21
207.0
  0
POLYLINE
  8
0
  6
CONTINUOUS
  62
7
  67
0
  66
1
  70
1
  0
VERTEX
  8
0
  67
0
  10
86.0
  20
196.5
  30
0.0
  0
VERTEX
  8
0
  67
0
  10
87.0
  20
196.5
  30
0.0
  0
VERTEX
  8
0
  67
0
  10
87.0
  20
192.5
  30
0.0
  0
VERTEX
  8
0
  67
0
  10
86.0
  20
192.5
  30
0.0
  0
VERTEX
  8
0
  67
0
  10
86.0
  20
196.5
  30
0.0
  0
SEQEND
  0
LINE
  8
0
  6
CONTINUOUS
  62
7
  67
0
  10
86.0
  20
196.0
  11
81.0
  21
195.5
  0
LINE
  8
0
  6
CONTINUOUS
  62
7
  67
0
  10
81.0
  20
195.5
  11
81.0
  21
193.5
  0
LINE
  8
0
  6
CONTINUOUS
  62
7
  67
0
  10
81.0
  20
193.5
  11
86.0
  21
193.0
  0
LINE
  8
0
  6
CONTINUOUS
  62
7
  67
0
  10
81.0
  20
195.0
  11
77.0
  21
195.0
  0
LINE
  8
0
  6
CONTINUOUS
  62
7
  67
0
  10
81.0
  20
194.0
  11
77.0
  21
194.0
  0
POLYLINE
  8
0
  6
CONTINUOUS
  62
7
  67
0
  66
1
  70
1
  0
VERTEX
  8
0
  67
0
  10
91.5
  20
221.5
  30
0.0
  0
VERTEX
  8
0
  67
0
  10
96.5
  20
221.5
  30
0.0
  0
VERTEX
  8
0
  67
0
  10
96.5
  20
220.5
  30
0.0
  0
VERTEX
  8
0
  67
0
  10
91.5
  20
220.5
  30
0.0
  0
VERTEX
  8
0
  67
0
  10
91.5
  20
221.5
  30
0.0
  0
SEQEND
  0
TEXT
  8
0
  62
7
  67
0
  10
102.930946
  20
189.1
  1
MS1800
  40
1.8
  7
STANDARD
  72
5
  11
113.069058
  21
189.1
  31
0.0
  1001
ACAD
  1000
TCW40_TEXT
  1002
{
  1000
Arial
  1070
0
  1070
0
  1002
}
  0
ARC
  8
0
  6
CONTINUOUS
  62
7
  67
0
  10
94.0
  20
166.0
  40
3.5
  50
135.675804
  51
224.324196
  0
ARC
  8
0
  6
CONTINUOUS
  62
7
  67
0
  10
94.0
  20
166.0
  40
3.5
  50
-44.324196
  51
44.324196
  0
ARC
  8
0
  6
CONTINUOUS
  62
7
  67
0
  10
94.0
  20
178.0
  40
2.0
  50
0.0
  51
180.0
  0
ARC
  8
0
  6
CONTINUOUS
  62
7
  67
0
  10
94.0
  20
154.0
  40
2.0
  50
180.0
  51
360.0
  0
CIRCLE
  8
0
  6
CONTINUOUS
  62
7
  67
0
  10
94.0
  20
166.0
  40
2.0
  0
ARC
  8
0
  6
CONTINUOUS
  62
7
  67
0
  10
101.0
  20
166.0
  40
2.0
  50
-90.0
  51
90.0
  0
LINE
  8
0
  6
CONTINUOUS
  62
7
  67
0
  10
92.0
  20
178.0
  11
91.496108
  21
168.445511
  0
LINE
  8
0
  6
CONTINUOUS
  62
7
  67
0
  10
96.503892
  20
168.445511
  11
96.0
  21
178.0
  0
LINE
  8
0
  6
CONTINUOUS
  62
7
  67
0
  10
96.503892
  20
163.554489
  11
96.0
  21
154.0
  0
LINE
  8
0
  6
CONTINUOUS
  62
7
  67
0
  10
92.0
  20
154.0
  11
91.496108
  21
163.554489
  0
LINE
  8
0
  6
CONTINUOUS
  62
7
  67
0
  10
121.954543
  20
159.467737
  11
96.288362
  21
159.467737
  0
LINE
  8
0
  6
CONTINUOUS
  62
7
  67
0
  10
91.711638
  20
159.467737
  11
79.0
  21
159.467737
  0
LINE
  8
0
  6
CONTINUOUS
  62
7
  67
0
  10
79.0
  20
172.467737
  11
91.708235
  21
172.467737
  0
LINE
  8
0
  6
CONTINUOUS
  62
7
  67
0
  10
96.291765
  20
172.467737
  11
122.0
  21
172.467737
  0
CIRCLE
  8
0
  6
CONTINUOUS
  62
7
  67
0
  10
94.0
  20
178.5
  40
0.5
  0
CIRCLE
  8
0
  6
CONTINUOUS
  62
7
  67
0
  10
94.0
  20
176.5
  40
0.5
  0
CIRCLE
  8
0
  6
CONTINUOUS
  62
7
  67
0
  10
94.0
  20
174.5
  40
0.5
  0
CIRCLE
  8
0
  6
CONTINUOUS
  62
7
  67
0
  10
94.0
  20
172.5
  40
0.5
  0
CIRCLE
  8
0
  6
CONTINUOUS
  62
7
  67
0
  10
94.0
  20
170.5
  40
0.5
  0
CIRCLE
  8
0
  6
CONTINUOUS
  62
7
  67
0
  10
94.0
  20
153.5
  40
0.5
  0
CIRCLE
  8
0
  6
CONTINUOUS
  62
7
  67
0
  10
94.0
  20
155.5
  40
0.5
  0
CIRCLE
  8
0
  6
CONTINUOUS
  62
7
  67
0
  10
94.0
  20
157.5
  40
0.5
  0
CIRCLE
  8
0
  6
CONTINUOUS
  62
7
  67
0
  10
94.0
  20
159.5
  40
0.5
  0
CIRCLE
  8
0
  6
CONTINUOUS
  62
7
  67
0
  10
94.0
  20
161.5
  40
0.5
  0
CIRCLE
  8
0
  6
CONTINUOUS
  62
7
  67
0
  10
94.0
  20
166.0
  40
1.5
  0
POLYLINE
  8
0
  6
CONTINUOUS
  62
7
  67
0
  66
1
  0
VERTEX
  8
0
  67
0
  10
94.5
  20
165.5
  30
0.0
  0
VERTEX
  8
0
  67
0
  10
94.5
  20
165.0
  30
0.0
  0
VERTEX
  8
0
  67
0
  10
93.5
  20
165.0
  30
0.0
  0
VERTEX
  8
0
  67
0
  10
93.5
  20
165.5
  30
0.0
  0
SEQEND
  0
POLYLINE
  8
0
  6
CONTINUOUS
  62
7
  67
0
  66
1
  0
VERTEX
  8
0
  67
0
  10
93.5
  20
166.5
  30
0.0
  0
VERTEX
  8
0
  67
0
  10
93.5
  20
167.0
  30
0.0
  0
VERTEX
  8
0
  67
0
  10
94.5
  20
167.0
  30
0.0
  0
VERTEX
  8
0
  67
0
  10
94.5
  20
166.5
  30
0.0
  0
SEQEND
  0
POLYLINE
  8
0
  6
CONTINUOUS
  62
7
  67
0
  66
1
  0
VERTEX
  8
0
  67
0
  10
94.5
  20
166.5
  30
0.0
  0
VERTEX
  8
0
  67
0
  10
95.0
  20
166.5
  30
0.0
  0
VERTEX
  8
0
  67
0
  10
95.0
  20
165.5
  30
0.0
  0
VERTEX
  8
0
  67
0
  10
94.5
  20
165.5
  30
0.0
  0
SEQEND
  0
POLYLINE
  8
0
  6
CONTINUOUS
  62
7
  67
0
  66
1
  0
VERTEX
  8
0
  67
0
  10
93.5
  20
165.5
  30
0.0
  0
VERTEX
  8
0
  67
0
  10
93.0
  20
165.5
  30
0.0
  0
VERTEX
  8
0
  67
0
  10
93.0
  20
166.5
  30
0.0
  0
VERTEX
  8
0
  67
0
  10
93.5
  20
166.5
  30
0.0
  0
SEQEND
  0
TEXT
  8
0
  62
7
  67
0
  10
109.4
  20
160.930944
  1
MS1800
  40
1.8
  50
90.0
  7
STANDARD
  72
5
  11
109.4
  21
171.069056
  31
0.0
  1001
ACAD
  1000
TCW40_TEXT
  1002
{
  1000
Arial
  1070
0
  1070
0
  1002
}
  0
ENDSEC
  0
EOF
