  0
SECTION
  2
HEADER
  9
$ACADVER
  1
AC1009
  9
$ANGBASE
  50
0.0
  9
$ANGDIR
  70
0
  9
$ATTDIA
  70
1
  9
$ATTMODE
  70
1
  9
$ATTREQ
  70
1
  9
$AUNITS
  70
0
  9
$AUPREC
  70
2
  9
$AXISMODE
  70
0
  9
$CECOLOR
  62
256
  9
$CELTYPE
  6
BYLAYER
  9
$CLAYER
  8
0
  9
$DIMALT
  70
0
  9
$DIMALTD
  70
2
  9
$DIMALTF
  40
0.394
  9
$DIMAPOST
  1

  9
$DIMASO
  70
1
  9
$DIMASZ
  40
3.0
  9
$DIMBLK
  1

  9
$DIMBLK1
  1

  9
$DIMBLK2
  1

  9
$DIMCEN
  40
0.09
  9
$DIMCLRD
  70
256
  9
$DIMCLRE
  70
256
  9
$DIMCLRT
  70
256
  9
$DIMDLE
  40
0.0
  9
$DIMDLI
  40
7.5
  9
$DIMEXE
  40
2.0
  9
$DIMEXO
  40
1.0
  9
$DIMGAP
  40
2.0
  9
$DIMLFAC
  40
1.0
  9
$DIMLIM
  70
0
  9
$DIMPOST
  1

  9
$DIMRND
  40
0.2
  9
$DIMSAH
  70
0
  9
$DIMSCALE
  40
1.0
  9
$DIMSE1
  70
0
  9
$DIMSE2
  70
0
  9
$DIMSHO
  70
1
  9
$DIMSOXD
  70
0
  9
$DIMSTYLE
  2
*UNNAMED
  9
$DIMTAD
  70
1
  9
$DIMTFAC
  40
1.0
  9
$DIMTIH
  70
1
  9
$DIMTIX
  70
0
  9
$DIMTM
  40
0.0
  9
$DIMTOFL
  70
1
  9
$DIMTOH
  70
0
  9
$DIMTOL
  70
0
  9
$DIMTP
  40
0.0
  9
$DIMTSZ
  40
0.0
  9
$DIMTVP
  40
0.0
  9
$DIMTXT
  40
5.0
  9
$DIMZIN
  70
1
  9
$DRAGMODE
  70
0
  9
$ELEVATION
  40
0.0
  9
$EXTMAX
  10
0.0
  20
0.0
  30
0.0
  9
$EXTMIN
  10
0.0
  20
0.0
  30
0.0
  9
$FILLETRAD
  40
1.0
  9
$FILLMODE
  70
1
  9
$INSBASE
  10
0.0
  20
0.0
  30
0.0
  9
$LIMMAX
  10
841.0
  20
594.0
  9
$LIMMIN
  10
0.0
  20
0.0
  9
$LTSCALE
  40
1.0
  9
$LUNITS
  70
2
  9
$LUPREC
  70
2
  9
$MENU
  1
acad
  9
$MIRRTEXT
  70
0
  9
$ORTHOMODE
  70
0
  9
$OSMODE
  70
0
  9
$PDMODE
  70
0
  9
$PDSIZE
  40
0.0
  9
$PEXTMAX
  10
0.0
  20
0.0
  30
0.0
  9
$PEXTMIN
  10
0.0
  20
0.0
  30
0.0
  9
$PLIMCHECK
  70
0
  9
$PLIMMAX
  10
0.0
  20
0.0
  9
$PLIMMIN
  10
0.0
  20
0.0
  9
$PLINEWID
  40
0.0
  9
$PUCSXDIR
  10
1.0
  20
0.0
  30
0.0
  9
$PUCSYDIR
  10
0.0
  20
1.0
  30
0.0
  9
$QTEXTMODE
  70
0
  9
$SHADEDGE
  70
3
  9
$SHADEDIF
  70
70
  9
$SKETCHINC
  40
1.0
  9
$SPLFRAME
  70
0
  9
$SPLINESEGS
  70
20
  9
$SPLINETYPE
  70
0
  9
$SURFTAB1
  70
6
  9
$SURFTAB2
  70
6
  9
$TDINDWG
  40
0.0
  9
$TDUPDATE
  40
2449702.667959
  9
$TDUSRTIMER
  40
0.0
  9
$TEXTSIZE
  40
5.0
  9
$TEXTSTYLE
  7
STANDARD
  9
$TILEMODE
  70
1
  9
$TRACEWID
  40
1.0
  9
$UCSORG
  10
0.0
  20
0.0
  30
0.0
  9
$UCSXDIR
  10
1.0
  20
0.0
  30
0.0
  9
$UCSYDIR
  10
0.0
  20
1.0
  30
0.0
  9
$UNITMODE
  70
0
  9
$WORLDVIEW
  70
1
  9
$GRIDMODE
  70
0
  9
$PINSBASE
  10
0.0
  20
0.0
  30
0.0
  9
$PSLTSCALE
  70
1
  9
$TREEDEPTH
  70
3020
  0
ENDSEC
  0
SECTION
  2
TABLES
  0
TABLE
  2
VPORT
  70
1
  0
VPORT
  2
*ACTIVE
  70
0
  10
0.0
  20
0.0
  11
1.0
  21
1.0
  12
140.556122
  22
457.208923
  13
0.0
  23
0.0
  14
5.0
  24
5.0
  15
5.0
  25
5.0
  16
0.0
  26
0.0
  36
1.0
  17
0.0
  27
0.0
  37
0.0
  40
121.771851
  41
1.283334
  42
50.0
  43
0.0
  44
0.0
  50
0.0
  51
0.0
  71
0
  72
100
  73
1
  74
1
  75
0
  76
0
  77
0
  78
0
  0
ENDTAB
  0
TABLE
  2
LTYPE
  70
13
  0
LTYPE
  2
CONTINUOUS
  70
0
  3
CONTINUOUS
  72
65
  73
0
  40
0.0
  0
LTYPE
  2
BORDER
  70
0
  3
BORDER
  72
65
  73
6
  40
1.75
  49
0.5
  49
-0.25
  49
0.5
  49
-0.25
  49
0.0
  49
-0.25
  0
LTYPE
  2
CENTER
  70
0
  3
CENTER
  72
65
  73
4
  40
2.0
  49
1.25
  49
-0.25
  49
0.25
  49
-0.25
  0
LTYPE
  2
DASHDOT
  70
0
  3
DASHDOT
  72
65
  73
4
  40
1.0
  49
0.5
  49
-0.25
  49
0.0
  49
-0.25
  0
LTYPE
  2
DASHED
  70
0
  3
DASHED
  72
65
  73
2
  40
0.75
  49
0.5
  49
-0.25
  0
LTYPE
  2
DIVIDE
  70
0
  3
DIVIDE
  72
65
  73
6
  40
1.25
  49
0.5
  49
-0.25
  49
0.0
  49
-0.25
  49
0.0
  49
-0.25
  0
LTYPE
  2
DOT
  70
0
  3
DOT
  72
65
  73
2
  40
0.25
  49
0.0
  49
-0.25
  0
LTYPE
  2
HIDDEN
  70
0
  3
HIDDEN
  72
65
  73
2
  40
0.375
  49
0.25
  49
-0.125
  0
LTYPE
  2
PHANTOM
  70
0
  3
PHANTOM
  72
65
  73
6
  40
2.5
  49
1.25
  49
-0.25
  49
0.25
  49
-0.25
  49
0.25
  49
-0.25
  0
LTYPE
  2
$INVISIBLE
  70
0
  3
$INVISIBLE
  72
65
  73
2
  40
200.0
  49
-100.0
  49
-100.0
  0
LTYPE
  2
$MARGINS
  70
0
  3
$MARGINS
  72
65
  73
2
  40
0.075
  49
0.05
  49
-0.025
  0
LTYPE
  2
ENG_PUNKTIERT
  70
0
  3
ENG_PUNKTIERT
  72
65
  73
2
  40
2.0
  49
1.0
  49
-1.0
  0
LTYPE
  2
$AUXILIARY
  70
0
  3
$AUXILIARY
  72
65
  73
2
  40
0.1
  49
0.05
  49
-0.05
  0
ENDTAB
  0
TABLE
  2
LAYER
  70
2
  0
LAYER
  2
0
  70
64
  6
CONTINUOUS
  62
7
  0
LAYER
  2
2
  70
64
  6
CONTINUOUS
  62
7
  0
ENDTAB
  0
TABLE
  2
STYLE
  70
1
  0
STYLE
  2
STANDARD
  70
0
  3
txt
  4

  40
0.0
  41
1.0
  42
0.2
  50
0.0
  71
0
  0
ENDTAB
  0
ENDSEC
  0
SECTION
  2
BLOCKS
  0
ENDSEC
  0
SECTION
  2
ENTITIES
  0
LINE
  8
0
  6
CONTINUOUS
  62
0
  67
0
  10
132.341137
  20
472.483947
  11
99.341137
  21
472.483947
  0
LINE
  8
0
  6
CONTINUOUS
  62
1
  67
0
  10
94.841137
  20
472.483947
  11
123.341137
  21
472.483947
  0
LINE
  8
0
  6
CONTINUOUS
  62
1
  67
0
  10
159.841137
  20
461.983947
  11
159.841137
  21
465.983947
  0
LINE
  8
0
  6
CONTINUOUS
  62
1
  67
0
  10
159.841137
  20
461.983947
  11
129.841137
  21
461.983947
  0
LINE
  8
0
  6
CONTINUOUS
  62
1
  67
0
  10
129.841137
  20
461.983947
  11
129.841137
  21
465.983947
  0
LINE
  8
0
  6
CONTINUOUS
  62
1
  67
0
  10
129.841137
  20
465.983947
  11
159.841137
  21
465.983947
  0
LINE
  8
0
  6
CONTINUOUS
  62
1
  67
0
  10
119.841137
  20
481.983947
  11
133.841137
  21
481.983947
  0
LINE
  8
0
  6
CONTINUOUS
  62
1
  67
0
  10
133.841137
  20
454.983947
  11
119.841137
  21
454.983947
  0
LINE
  8
0
  6
CONTINUOUS
  62
1
  67
0
  10
119.841137
  20
454.983947
  11
119.841137
  21
481.983947
  0
LINE
  8
0
  6
CONTINUOUS
  62
1
  67
0
  10
119.841137
  20
477.983947
  11
116.841137
  21
477.983947
  0
LINE
  8
0
  6
CONTINUOUS
  62
1
  67
0
  10
116.841137
  20
477.983947
  11
116.841137
  21
466.983947
  0
LINE
  8
0
  6
CONTINUOUS
  62
1
  67
0
  10
116.841137
  20
466.983947
  11
119.841137
  21
466.983947
  0
LINE
  8
0
  6
CONTINUOUS
  62
1
  67
0
  10
119.841137
  20
466.983947
  11
119.841137
  21
477.983947
  0
LINE
  8
0
  6
CONTINUOUS
  62
1
  67
0
  10
116.841137
  20
474.483947
  11
101.341137
  21
474.483947
  0
LINE
  8
0
  6
CONTINUOUS
  62
1
  67
0
  10
101.341137
  20
474.483947
  11
101.341137
  21
470.483947
  0
LINE
  8
0
  6
CONTINUOUS
  62
1
  67
0
  10
101.341137
  20
470.483947
  11
116.841137
  21
470.483947
  0
LINE
  8
0
  6
CONTINUOUS
  62
1
  67
0
  10
116.841137
  20
470.483947
  11
116.841137
  21
474.483947
  0
LINE
  8
0
  6
CONTINUOUS
  62
1
  67
0
  10
171.841137
  20
448.983947
  11
133.841137
  21
448.983947
  0
LINE
  8
0
  6
CONTINUOUS
  62
1
  67
0
  10
171.841137
  20
448.983947
  11
171.841137
  21
476.983947
  0
LINE
  8
0
  6
CONTINUOUS
  62
1
  67
0
  10
171.841137
  20
476.983947
  11
141.649136
  21
476.983947
  0
LINE
  8
0
  6
CONTINUOUS
  62
1
  67
0
  10
133.841137
  20
478.983947
  11
138.341137
  21
478.983947
  0
LINE
  8
0
  6
CONTINUOUS
  62
1
  67
0
  10
138.341137
  20
478.983947
  11
159.841137
  21
465.983947
  0
LINE
  8
0
  6
CONTINUOUS
  62
1
  67
0
  10
133.841137
  20
454.983947
  11
133.841137
  21
448.983947
  0
LINE
  8
0
  6
CONTINUOUS
  62
1
  67
0
  10
133.841137
  20
481.983947
  11
133.841137
  21
465.983947
  0
LINE
  8
0
  6
CONTINUOUS
  62
1
  67
0
  10
133.841137
  20
454.983947
  11
133.841137
  21
461.983947
  0
LINE
  8
0
  6
CONTINUOUS
  62
1
  67
0
  10
171.841137
  20
464.483947
  11
178.841137
  21
464.483947
  0
LINE
  8
0
  6
CONTINUOUS
  62
1
  67
0
  10
178.841137
  20
464.483947
  11
178.841137
  21
461.483947
  0
LINE
  8
0
  6
CONTINUOUS
  62
1
  67
0
  10
178.841137
  20
461.483947
  11
171.841137
  21
461.483947
  0
LINE
  8
0
  6
CONTINUOUS
  62
1
  67
0
  10
171.841137
  20
461.483947
  11
171.841137
  21
464.483947
  0
CIRCLE
  8
0
  6
CONTINUOUS
  62
1
  67
0
  10
176.341137
  20
462.983947
  40
1.0
  0
LINE
  8
0
  6
CONTINUOUS
  62
1
  67
0
  10
171.841137
  20
467.983947
  11
173.841137
  21
467.983947
  0
LINE
  8
0
  6
CONTINUOUS
  62
1
  67
0
  10
173.841137
  20
457.983947
  11
171.841137
  21
457.983947
  0
LINE
  8
0
  6
CONTINUOUS
  62
1
  67
0
  10
171.841137
  20
457.983947
  11
171.841137
  21
467.983947
  0
LINE
  8
0
  6
CONTINUOUS
  62
1
  67
0
  10
173.841137
  20
467.983947
  11
173.841137
  21
464.483947
  0
LINE
  8
0
  6
CONTINUOUS
  62
1
  67
0
  10
173.841137
  20
457.983947
  11
173.841137
  21
461.483947
  0
LINE
  8
0
  6
CONTINUOUS
  62
1
  67
0
  10
119.841137
  20
465.483947
  11
116.841137
  21
465.483947
  0
LINE
  8
0
  6
CONTINUOUS
  62
1
  67
0
  10
116.841137
  20
465.483947
  11
116.841137
  21
460.483947
  0
LINE
  8
0
  6
CONTINUOUS
  62
1
  67
0
  10
116.841137
  20
460.483947
  11
119.841137
  21
460.483947
  0
LINE
  8
0
  6
CONTINUOUS
  62
1
  67
0
  10
119.841137
  20
460.483947
  11
119.841137
  21
465.483947
  0
LINE
  8
0
  6
CONTINUOUS
  62
1
  67
0
  10
164.841137
  20
466.983947
  11
164.841137
  21
458.983947
  0
LINE
  8
0
  6
CONTINUOUS
  62
1
  67
0
  10
160.841137
  20
458.983947
  11
160.841137
  21
466.983947
  0
ARC
  8
0
  6
CONTINUOUS
  62
1
  67
0
  10
162.841137
  20
466.983947
  40
2.0
  50
0.0
  51
180.0
  0
ARC
  8
0
  6
CONTINUOUS
  62
1
  67
0
  10
162.841137
  20
458.983947
  40
2.0
  50
180.0
  51
360.0
  0
LINE
  8
0
  6
CONTINUOUS
  62
1
  67
0
  10
137.841137
  20
466.983947
  11
137.841137
  21
460.983947
  0
LINE
  8
0
  6
CONTINUOUS
  62
1
  67
0
  10
156.841137
  20
466.983947
  11
156.841137
  21
460.983947
  0
LINE
  8
2
  6
ENG_PUNKTIERT
  62
1
  67
0
  10
136.841137
  20
465.983947
  11
136.841137
  21
461.983947
  0
LINE
  8
2
  6
ENG_PUNKTIERT
  62
1
  67
0
  10
138.841137
  20
465.983947
  11
138.841137
  21
461.983947
  0
LINE
  8
2
  6
ENG_PUNKTIERT
  62
1
  67
0
  10
155.841137
  20
465.983947
  11
155.841137
  21
461.983947
  0
LINE
  8
2
  6
ENG_PUNKTIERT
  62
1
  67
0
  10
157.841137
  20
465.983947
  11
157.841137
  21
461.983947
  0
LINE
  8
0
  6
CONTINUOUS
  62
1
  67
0
  10
129.841137
  20
473.483947
  11
119.841137
  21
473.483947
  0
LINE
  8
0
  6
CONTINUOUS
  62
1
  67
0
  10
119.841137
  20
466.983947
  11
129.841137
  21
466.983947
  0
LINE
  8
0
  6
CONTINUOUS
  62
1
  67
0
  10
119.841137
  20
458.983947
  11
133.841137
  21
458.983947
  0
LINE
  8
0
  6
CONTINUOUS
  62
1
  67
0
  10
129.841137
  20
465.983947
  11
129.841137
  21
481.983947
  0
LINE
  8
0
  6
CONTINUOUS
  62
1
  67
0
  10
129.841137
  20
474.983947
  11
133.841137
  21
474.983947
  0
TEXT
  8
0
  62
1
  67
0
  10
136.341137
  20
450.787603
  1
SPEED 600 1.85/1
  40
1.923999
  7
STANDARD
  72
5
  11
158.490879
  21
450.787603
  31
0.0
  0
ENDSEC
  0
EOF
